Log in

One click and you are in

Login with Facebook Login with Google

Why sign up and log in

Guitar Tabs Explorer
One Ok Rock bass tabs for Heartache

Bass tabs

-------------------------------------------------------------------------------
               Heartache - ONE OK ROCK
-------------------------------------------------------------------------------
Tabbed by: MiGHYMONO
Tuning: Db Ab Db Gb (Eb Drop Db)

0:29
Gb|----------------------------------------|
Db|----------------------------------------|
Ab|----------------------5-----------------|
Db|----2--------5-----------------7--------|

Gb|-------------------------------|
Db|-------------------------------|
Ab|-------------------------------|
Db|----2--------5--------7--------|


[Pause]


2:03
Gb|----------------------------------------|
Db|----------------------------------------|
Ab|----------------------5-----------------|
Db|----2--------5-----------------7--------|

Gb|-------------------------------|
Db|-------------------------------|
Ab|-------------------------------|
Db|----2--------5--------7--------|


[Pause]

2:56
Gb|----------------------------------------------------|
Db|----------------------------------------------------|
Ab|-------------------------5-5--5-5/7-----------------|
Db|----5/12\5----5--5-5--5--------------7--7--7--------|

Gb|----------------------------------------------------------|
Db|----------------------------------------------------------|
Ab|-----------------------------5-5--5-5/7-------------------|
Db|----2--2--2-4-2-3-5--5-5--5--------------7--7-7--7--------|

Gb|-------------------------------------------------------|
Db|-------------------------------------------------------|
Ab|---------------------5-5--5-5/7------------------------|
Db|----2--2--4-5--5--5--------------7--7-7--7--7-7--------|

Gb|-----------------------------------------------------------------------|
Db|-----------------------------------------4-5-4-------------------------|
Ab|-----------------------------------------------5-----------------------|
Db|----2--2-4-5--5--5-7-5--5--4--4--4--4-4----------5--5--5-7-5--5--------|

Gb|------------------------------------------------------------|
Db|-------------7---7-7-7----------7---7--7--7/11-12-11--------|
Ab|-----------7---7-------7------7---7-------------------------|
Db|----7--7-7---------------7-7--------------------------------|

Gb|--------------------------------------------------------|
Db|----------------------------------3/5--5--5--7-5--------|
Ab|------------5--5--5--7-5--------------------------------|
Db|----0--0-0----------------5--5-5------------------------|

Gb|----------------------------------------------------------------|
Db|----------------------------------------------------------------|
Ab|------------7--7-7--7--7-7--7-7/12--12-12--12--12-12--12--------|
Db|----2--2-2------------------------------------------------------|

Gb|--------------------------------------------------------|
Db|----------------------------------3/5--5--5--7-5--------|
Ab|------------5--5--5--7-5--------------------------------|
Db|----0--0-0----------------5--5-5------------------------|

Gb|-------------------------------------------------------------------------|
Db|-------------------------------------------------------------------------|
Ab|------------7--7-7--7--7-7--7----------7/12--12-12--12--12-12--12--------|
Db|----2--2-2---------------------7--7-7------------------------------------|

Gb|--------------------------------------------------------|
Db|----------------------------------3/5--5--5--7-5--------|
Ab|------------5--5--5--7-5--------------------------------|
Db|----0--0-0----------------5--5-5------------------------|

Gb|-------------------------------------------------------------|
Db|--------------------------------5-5-4------------------------|
Ab|------------5--5--5--7-5-----------------5\2-----------------|
Db|----0--0-0----------------5-5-6--------5-----2-2-2-0~--------|

ONE OK ROCK - HEARTACHE - 35xxxv - 2015

Almost there ...

Sign in to get your own page with links to favourite songs and more. You are just one click away...

Login with Facebook Login with Google