Log in

One click and you are in

Login with Facebook Login with Google

Why sign up and log in

Guitar Tabs Explorer
One Ok Rock bass tabs for Cry out

Bass tabs

Intro:
(Rest 4 bars, then)
G|--------------------------|--------------------------------|
D|--------------------------|--------------------------------|
A|-1-1--1-1-1--1-1-1--1-1-1-|-1-3-3--3-3-3--3-3-3--3-3-3--3--|
D|--------------------------|--------------------------------|

G|----------------------------------|--------------------5-------|
D|----------------------------------|----------------5h7---5-3~--|
A|------------------5-5-5-5-5-5-5-5-|-3-3--3-3-3---5-------------|
D|-0-0-0-0-0-0-0-0------------------|----------------------------|

G|--------------|
D|--------------|
A|-5-5--3-3--1~-|
D|--------------|

(If you want to, you can replace ALL the small "rhythm" sections in the intro and chorus with this)
G|----------------------------------|-------------------------------|
D|----------------------------------|-------------------------------|
A|------------------5-5-5-5-5-5-5-5-|-3-3--3-3-3--3-3-3--3-3-3--(3)-|
D|-0-0-0-0-0-0-0-0------------------|-------------------------------|

Add "(3)" if you feel its necessary:


Verse 1:
(Rest 4 bars, then)
G|---------------------------------|---------------------------------|
D|---------------------------------|---------------------7-----7-----|
A|-1-1-1-1-1-1-1-1-1-1-1-1-1-1-1-1-|-5-5-5-5-5-5-5-5-5-5---5-5---5-5-|
D|---------------------------------|---------------------------------|

G|---------------------------------|-------------------------------------------|
D|---------------------------------|-------------------------------------------|
A|-3-3-3-3-3-3-3-3-3-3-3-3-3-3-3-3-|--3-3-3-3-3-3-3-3/-15-15-15-15-15-15-15-15-|
D|---------------------------------|-------------------------------------------|

Pre-Chorus:
G|---------------------------------|---------------------------------|
D|---------------------------------|---------------------------------|
A|---------------------------------|-1-1-1-1-1-1-1-1-1-1-1-1-1-1-1-1-|
D|-5-5-5-5-5-5-5-5-5-5-5-5-5-5-5-5-|---------------------------------|

G|---------------------------------|------------------------|
D|---------------------------------|------------------------|
A|-5-5-5-5-5-5-5-5-------5-5-5-5-5-|------------------------|
D|-----------------0-0-0-----------|-6~--/18-18-18-18-18\---|


Chorus:
G|--------------------------|--------------------------------|
D|--------------------------|--------------------------------|
A|-1-1--1-1-1--1-1-1--1-1-1-|-1-3-3--3-3-3--3-3-3--3-3-3--3--|
D|--------------------------|--------------------------------|

G|----------------------------------|--------------------5-------|
D|----------------------------------|----------------5h7---5-3~--|
A|------------------5-5-5-5-5-5-5-5-|-3-3--3-3-3---5-------------|
D|-0-0-0-0-0-0-0-0------------------|----------------------------|

G|--------------------------|------------------------------|
D|--------------------------|------------------------------|
A|-1-1--1-1-1--1-1-1--1-1-1-|-1-0-0--0-0-0--0-3-3--3-3-3-3-|
D|--------------------------|------------------------------|

Post-Chorus:
G|----------------5----------|-------------------------|
D|---------3---------6--5--3-|---------3---------------|
A|-5--3-5----5-3-------------|-5--3-5----5-3---5-3-5-5-|
D|---------------------------|-------------------------| (x2)

G|-----|
D|-----|
A|--1~-|
D|-----|


Verse 2:
(rest 1 bar, then)

   (lightly)
G|---------------------------------|------------------------------------------------------|------|
D|---------------------------------|------------------------------------------------------|------|
A|-5-5-5-5-5-5-5-5-5-5-5-5-5-5-5-5-|------------------------------------------------------|------|
D|---------------------------------|--10-10-10-10-10-10-10-10-10-10-10-10-10-10-10-10/-0--|-rest-|

G|---------------------------------|---------------------------------|
D|---------------------------------|---------------------7-----7-----|
A|-1-1-1-1-1-1-1-1-1-1-1-1-1-1-1-1-|-5-5-5-5-5-5-5-5-5-5---5-5---5-5-|
D|---------------------------------|---------------------------------|

G|---------------------------------|-------------------------------------------|
D|---------------------------------|-------------------------------------------|
A|-3-3-3-3-3-3-3-3-3-3-3-3-3-3-3-3-|--3-3-3-3-3-3-3-3/-15-15-15-15-15-15-15-15-|
D|---------------------------------|-------------------------------------------|


Pre-Chorus:
G|---------------------------------|---------------------------------|
D|---------------------------------|---------------------------------|
A|---------------------------------|-1-1-1-1-1-1-1-1-1-1-1-1-1-1-1-1-|
D|-5-5-5-5-5-5-5-5-5-5-5-5-5-5-5-5-|---------------------------------|

G|---------------------------------|------|
D|---------------------------------|------|
A|-5-5-5-5-5-5-5-5-------5-5-5-5-5-|------|
D|-----------------0-0-0-----------|-rest-|


Chorus:
G|--------------------------|--------------------------------|
D|--------------------------|--------------------------------|
A|-1-1--1-1-1--1-1-1--1-1-1-|-1-3-3--3-3-3--3-3-3--3-3-3--3--|
D|--------------------------|--------------------------------|

G|----------------------------------|--------------------5-------|
D|----------------------------------|----------------5h7---5-3~--|
A|------------------5-5-5-5-5-5-5-5-|-3-3--3-3-3---5-------------|
D|-0-0-0-0-0-0-0-0------------------|----------------------------|

G|--------------------------|------------------------------|
D|--------------------------|------------------------------|
A|-1-1--1-1-1--1-1-1--1-1-1-|-1-0-0--0-0-0--0-3-3--3-3-3-3-|
D|--------------------------|------------------------------|


Bridge:
G|--------|--------|--------|--------14--12--10~--|
D|--------|--------|--------|---------------------|
A|--------|--------|--------|---------------------|
D|-(rest)-|-(rest)-|-(rest)-|---------------------|

(Rest 4 bars, then)
G|-10-10-10-10-10-10-10-10-|-10-10-10-10-10-10-10-10-|
D|-------------------------|-------------------------|
A|-------------------------|-------------------------|
D|-------------------------|-------------------------|

G|-12-12-12-12-12-12-12-12-|-12-12-12-12-9-9-9-9--|
D|-------------------------|----------------------|
A|-------------------------|----------------------|
D|-------------------------|----------------------|

G|-10-10-10-10-10-10-10-10/-|-14-14-14-14-14-14-14-14--|------|
D|--------------------------|--------------------------|------|
A|--------------------------|--------------------------|------|
D|--------------------------|--------------------------|-rest-|


Chorus:
G|--------------------------|--------------------------------|
D|--------------------------|--------------------------------|
A|-1-1--1-1-1--1-1-1--1-1-1-|-1-3-3--3-3-3--3-3-3--3-3-3--3--|
D|--------------------------|--------------------------------|

G|----------------------------------|----------------|
D|----------------------------------|----------------|
A|------------------5-5-5-5-5-5-5-5-|-3-3--3-3-3--3*-|
D|-0-0-0-0-0-0-0-0------------------|----------------|

G|--------------------------|--------------------------------|
D|--------------------------|--------------------------------|
A|-1-1--1-1-1--1-1-1--1-1-1-|-1-3-3--3-3-3--3-3-3--3-3-3--3--|
D|--------------------------|--------------------------------|

G|----------------------------------|--------------------5-------|
D|----------------------------------|----------------5h7---5-3~--|
A|------------------5-5-5-5-5-5-5-5-|-3-3--3-3-3---5-------------|
D|-0-0-0-0-0-0-0-0------------------|----------------------------|

G|--------------------------|------------------------------|
D|--------------------------|------------------------------|
A|-1-1--1-1-1--1-1-1--1-1-1-|-1-0-0--0-0-0--0-3-3--3-3-3-3-|
D|--------------------------|------------------------------|

Post-Chorus/Ending:
G|----------------5----------|-------------------------|
D|---------3---------6--5--3-|---------3---------------|
A|-5--3-5----5-3-------------|-5--3-5----5-3---5-3-5-5-|
D|---------------------------|-------------------------| (x4)

Almost there ...

Sign in to get your own page with links to favourite songs and more. You are just one click away...

Login with Facebook Login with Google