Log in

One click and you are in

Login with Facebook Login with Google

Why sign up and log in

Guitar Tabs Explorer
One Ok Rock bass tabs for Always coming back

Bass tabs

Strings: 4
Turning: E A D G (Standard)
Level: 4/10


0:38
G|----------------------------------------------------|
D|----------------------------------------------------|
A|--2------------5------------2------------5----------|
E|-----3--3~--------5--5~--------3--3~--------5--5~---|

G|---------------------------------------------------------------|
D|---------------------------------------------------------------|
A|--2-2----------5-(8x)------------2-2----------5-(8x)-----------|
E|--------3-3------------5-(8x)----------3-3------------5-(8x)---|

G|----------------------------------------------------|
D|----------------------------------------------------|
A|--2------------5------------2------------5----------| 3 times
E|-----3--3~--------5--5~--------3--3~--------5--5~---|

G|---------------------------------------------------------------|
D|---------------------------------------------------------------|
A|--2-2----------5-(8x)------------2-2----------5-(8x)-----------|
E|--------3-3------------5-(8x)----------3-3------------5-(8x)---|


Pause


1:57
G|--------------------------------------------------------------------|
D|--------------------------------------------------------------------|
A|------------------5-(8x)--7-(8x)------------------5-(8x)--7--(8x)---| 3 times
E|--7-(8x)--5-(8x)------------------7-(8x)--5-(8x)--------------------|

G|----------------------------|
D|----------------------------|
A|----------------------------|
E|--3~---3~---3~---3~--3--3---|

Pause


2:45
G|---------------------------------------------------------------|
D|---------------------------------------------------------------|
A|--2-2----------5-(8x)------------2-2----------5-(8x)-----------|
E|--------3-3------------5-(8x)----------3-3------------5-(8x)---|

G|------------------------------------------------------------------|
D|------------------------------------------------------------------|
A|--2-(8x)----------5-(8x)---------2-(8x)----------5-(8x)-----------|
E|----------3-(8x)---------5-(8x)----------3-(8x)----------5-(8x)---|


▬▬▬▬▬▬▬▬▬▬ஜ۩۞۩ஜ▬▬▬▬▬▬▬▬▬▬▬▬▬▬
Band:  ONE OK ROCK


Album: Always coming back - Single

Year:  2016
▬▬▬▬▬▬▬▬▬▬ஜ۩۞۩ஜ▬▬▬▬▬▬▬▬▬▬▬▬▬▬


If you like the tab, Please leave a rating for another ONE OK ROCK bass tabs.

Wrong note or turning need to fix, please sent me a private massage. Thank you :D

Almost there ...

Sign in to get your own page with links to favourite songs and more. You are just one click away...

Login with Facebook Login with Google