Log in

One click and you are in

Login with Facebook Login with Google

Why sign up and log in

Guitar Tabs Explorer
One Ok Rock bass tabs for Adult suit

Bass tabs

Tuning: D#G#C#F#



Intro - 0:22:

F#|--------------------------------6-----------69-86------------------|
C#|----------------------99-----9-9-9777---9979-----9777---999--------|
G#|4444244-------------9---96-79--------777-------------777---999-----|
D#|--------00224444/777------------------------------------------777\-|

F#|--------------------------------6-----------69-86------------------|
C#|----------------------99-----9-9-9777---9979-----9777---999--------|
G#|4444244-------------9---96-79--------777-------------777---999-----|
D#|--------00224444/777------------------------------------------777\-|

Verse - 0:43:

F#|-------------------------------------------------------------------|
C#|-----------------------11p97---------------------------------------|
G#|------7911-9h779-----/9-------9-11-----9-9-911\-11--9p7h9p7--------|
D#|9---9------------7----------7------2------9----------------9-79\---|

F#|-------------------------------------------------------------------|
C#|--------------------------9------------------11----------13--------|
G#|--------6-7-6-6\4---7----7-7-9p7\6h7p6-7/9-------7/9-11------------|
D#|9-7/---7-7---7----4-------------------7----------------------------|

F#|-------------------------------------------------------------------|
C#|-------------------------------------------------------------------|
G#|------6-7-6---------6-9--7777777777777777--------------------------|
D#|9--99-------9-8--88----------------------2-------------------------|


Chorus - 1:14:

F#|-------------------------------------------------------------------|
C#|-------------------------------------------------------------------|
G#|44444444444444442222222222222222-----------------------------------|
D#|--------------------------------00000000000000002222222244444444---|

F#|-------------------------------------------------------------------|
C#|-------------------------------------------------------------------|
G#|44444444444444442222222222222222-----------------------------------|
D#|--------------------------------00000000000000002222222244444444---|


Post-Chorus - 1:35:

F#|--------------------------------6-----------69-86------------------|
C#|----------------------99-----9-9-9777---9979-----9777---999--------|
G#|4444244-------------9---96-79--------777-------------777---999-----|
D#|--------00224444/777------------------------------------------777\-|


Verse - 1:45:

F#|-------------------------------------------------------------------|
C#|-----------------------11p97---------------------------------------|
G#|------7911-9h779-----/9-------9-11-----9-9-911\-11--9p7h9p7--------|
D#|9---9------------7----------7------2------9----------------9-79\---|

F#|-------------------------------------------------------------------|
C#|--------------------------9------------------11----------13--------|
G#|--------6-7-6-6\4---7----7-7-9p7\6h7p6-7/9-------7/9-11------------|
D#|9-7/---7-7---7----4-------------------7----------------------------|

F#|-------------------------------------------------------------------|
C#|-------------------------------------------------------------------|
G#|------6-7-6---------6-9--7777777777777777--------------------------|
D#|9--99-------9-8--88----------------------2-------------------------|


Chorus - 2:16:

F#|-------------------------------------------------------------------|
C#|-------------------------------------------------------------------|
G#|44444444444444442222222222222222-----------------------------------|
D#|--------------------------------00000000000000002222222244444444---|

F#|-------------------------------------------------------------------|
C#|-------------------------------------------------------------------|
G#|44444444444444442222222222222222-----------------------------------|
D#|--------------------------------00000000000000002222222244444444---|


REST


Solo - 2:39:

F#|----16-/18-16-----16-18-/20-16--/21-21---20---|
C#|/16------------16-------------------21---21---|
G#|----------------------------------------------|
D#|----------------------------------------------|

F#|--16h18---------16h18---------16h18----16h18---------16h18---------16h18--|
C#|---------16h18---------16h18------------------16h18---------16h18---------|
G#|16-----16-----16-----16-----16-------16-----16-----16-----16-----16-------|
D#|--------------------------------------------------------------------------|

F#|--16h18---------16h18---------16h18----16h18---------16h18---------16h18--|
C#|---------16h18---------16h18------------------16h18---------16h18---------|
G#|16-----16-----16-----16-----16-------16-----16-----16-----16-----16-------|
D#|--------------------------------------------------------------------------|


Bridge - 2:57:

F#|-------------------------------------------------------------------|
C#|-------------------------------------------------------------------|
G#|4-44-4444-----2-4-44-4444-----2-4-44-4444-----2-4-44-4444----------|
D#|---------0-2-4-----------0-2-4-----------0-2-4-----------0-4-------|

F#|-------------------------------------------------------------------|
C#|11\----------------------------------------------------------------|
G#|--------6-7-6---------6-9--77777777777777779-----------------------|
D#|-----99-------9-8--88----------------------------------------------|


Chorus - 3:18:

F#|-------------------------------------------------------------------|
C#|-------------------------------------------------------------------|
G#|44444444444444442222222222222222-----------------------------------|
D#|--------------------------------00000000000000002222222244444444---|

F#|-------------------------------------------------------------------|
C#|-------------------------------------------------------------------|
G#|44444444444444442222222222222222-----------------------------------|
D#|--------------------------------00000000000000002222222244444444---|


Outro - 3:39:

F#|--------------------------------6-----------69-86------------------|
C#|----------------------99-----9-9-9777---9979-----9777---999--------|
G#|4444244-------------9---96-79--------777-------------777---999-----|
D#|--------00224444/777------------------------------------------777\-|

F#|--------------------------------6-----------69-86------------------|
C#|----------------------99-----9-9-9777---9979-----9777---999--------|
G#|4444244-------------9---96-79--------777-------------777---999-----|
D#|--------00224444/777------------------------------------------777--|


************************************

| h  Hammer-on
| p  Pull-off
| /  Slide up
| \  Slide down

Almost there ...

Sign in to get your own page with links to favourite songs and more. You are just one click away...

Login with Facebook Login with Google