Log in

One click and you are in

Login with Facebook Login with Google

Why sign up and log in

Guitar Tabs Explorer
Omni bass tabs for Delicacy

Bass tabs

Tuning: Standard (E A D G)


Intro:

G|----5-----------|----------------|----5-----------|----------------|
D|5-------7---0---|0-5-5-0-5-5---x-|5-------7---0---|0-5-5-0-5-5---x-|
A|----------------|----------------|----------------|----------------|
E|----------------|----------------|----------------|----------------|
 1 + 2 + 3 + 4 + 1 + 2 + 3 + 4 + 1 + 2 + 3 + 4 + 1 + 2 + 3 + 4 +

G|----5-----------|----------------|----5-----------|----------------|
D|5-------7---0---|0-5-5-0-5-5---x-|5-------7---0---|0-5-5-0-5-5-----|
A|----------------|----------------|----------------|----------------|
E|----------------|----------------|----------------|----------------|
 1 + 2 + 3 + 4 + 1 + 2 + 3 + 4 + 1 + 2 + 3 + 4 + 1 + 2 + 3 + 4 +

G|----------------|----------------|----------------|
D|0-5-5-0-5-5-----|0-5-5-0-5-5-----|0-5-5-0-5-5-----|
A|----------------|----------------|----------------|
E|----------------|----------------|----------------|
 1 + 2 + 3 + 4 + 1 + 2 + 3 + 4 + 1 + 2 + 3 + 4 +


Verse:

G|--1-----1---1h2-|----------------|--1-----1---1h2-|----------------|
D|0-----0---------|----------------|0-----0---------|----------------|
A|----------------|3-3-3-3-3-3-3-0-|----------------|3-3-3-3-3-3-3-0-| x2
E|----------------|----------------|----------------|----------------|
 1 + 2 + 3 + 4 + 1 + 2 + 3 + 4 + 1 + 2 + 3 + 4 + 1 + 2 + 3 + 4 +


Chorus:

G|----5-----------|----------------|----5-----------|----------------|
D|5-------7---0---|0-5-5-0-5-5---x-|5-------7---0---|0-5-5-0-5-5---x-|
A|----------------|----------------|----------------|----------------|
E|----------------|----------------|----------------|----------------|
 1 + 2 + 3 + 4 + 1 + 2 + 3 + 4 + 1 + 2 + 3 + 4 + 1 + 2 + 3 + 4 +

G|----5-----------|----------------|----5-----------|----------------|
D|5-------7---0---|0-5-5-0-5-5---x-|5-------7---0---|0-5-5-0-5-5-----|
A|----------------|----------------|----------------|----------------|
E|----------------|----------------|----------------|----------------|
 1 + 2 + 3 + 4 + 1 + 2 + 3 + 4 + 1 + 2 + 3 + 4 + 1 + 2 + 3 + 4 +

Verse:

G|--1-----1---1h2-|----------------|--1-----1---1h2-|----------------|
D|0-----0---------|----------------|0-----0---------|----------------|
A|----------------|3-3-3-3-3-3-3-0-|----------------|3-3-3-3-3-3-3-0-| x2
E|----------------|----------------|----------------|----------------|
 1 + 2 + 3 + 4 + 1 + 2 + 3 + 4 + 1 + 2 + 3 + 4 + 1 + 2 + 3 + 4 +


Bridge:

G|----------------|----------------|----------------|----------------|
D|0-5-5-0-5-5-----|0-5-5-0-5-5-----|0-5-5-0-5-5-----|0-5-5-0-5-5-----|
A|----------------|----------------|----------------|----------------| x2
E|----------------|----------------|----------------|----------------|
 1 + 2 + 3 + 4 + 1 + 2 + 3 + 4 + 1 + 2 + 3 + 4 + 1 + 2 + 3 + 4 +

G|----------------|
D|14--------------|
A|----15--10------|
E|----------------|
 1 + 2 + 3 + 4 +


Chorus:

G|----5-----------|----------------|----5-----------|----------------|
D|5-------7---0---|0-5-5-0-5-5---x-|5-------7---0---|0-5-5-0-5-5---x-|
A|----------------|----------------|----------------|----------------|
E|----------------|----------------|----------------|----------------|
 1 + 2 + 3 + 4 + 1 + 2 + 3 + 4 + 1 + 2 + 3 + 4 + 1 + 2 + 3 + 4 +

G|----5-----------|----------------|----5-----------|----------------|
D|5-------7---0---|0-5-5-0-5-5---x-|5-------7---0---|0-5-5-0-5-5-----|
A|----------------|----------------|----------------|----------------|
E|----------------|----------------|----------------|----------------|
 1 + 2 + 3 + 4 + 1 + 2 + 3 + 4 + 1 + 2 + 3 + 4 + 1 + 2 + 3 + 4 +


Verse:

G|--1-----1---1h2-|----------------|--1-----1---1h2-|----------------|
D|0-----0---------|----------------|0-----0---------|----------------|
A|----------------|3-3-3-3-3-3-3-0-|----------------|3-3-3-3-3-3-3-0-|
E|----------------|----------------|----------------|----------------|
 1 + 2 + 3 + 4 + 1 + 2 + 3 + 4 + 1 + 2 + 3 + 4 + 1 + 2 + 3 + 4 +

G|--1-----1---1h2-|----------------|--1-----1---1h2-|----------------|
D|0-----0---------|----------------|0-----0---------|----------------|
A|----------------|3-3-3-3-3-3-3-0-|----------------|--3-----3-------|
E|----------------|----------------|----------------|----------------|
 1 + 2 + 3 + 4 + 1 + 2 + 3 + 4 + 1 + 2 + 3 + 4 + 1 + 2 + 3 + 4 +

G|----------------|
D|----------------|
A|----6---4-------|
E|----------------|
 1 + 2 + 3 + 4 +


Bridge 2:

G|----------------|----------------|----------------|----------------|
D|0-5-5-0-5-5-----|0-5-5-0-5-5-----|0-3-3-0-3-3-----|0-3-3-0-3-3-----|
A|----------------|----------------|----------------|----------------| x2
E|----------------|----------------|----------------|----------------|
 1 + 2 + 3 + 4 + 1 + 2 + 3 + 4 + 1 + 2 + 3 + 4 + 1 + 2 + 3 + 4 +

G|----------------|----------------|----------------|----------------|
D|----------------|----------------|----------------|14--------------|
A|----------------|----------------|----------------|----15--10------|
E|----------------|----------------|----------------|----------------|
 1 + 2 + 3 + 4 + 1 + 2 + 3 + 4 + 1 + 2 + 3 + 4 + 1 + 2 + 3 + 4 +


Chorus:

G|----5-----------|----------------|----5-----------|----------------|
D|5-------7---0---|0-5-5-0-5-5---x-|5-------7---0---|0-5-5-0-5-5---x-|
A|----------------|----------------|----------------|----------------|
E|----------------|----------------|----------------|----------------|
 1 + 2 + 3 + 4 + 1 + 2 + 3 + 4 + 1 + 2 + 3 + 4 + 1 + 2 + 3 + 4 +

G|----5-----------|----------------|----5-----------|----------------|
D|5-------7---0---|0-5-5-0-5-5---x-|5-------7---0---|0-5-5-0-5-5-----|
A|----------------|----------------|----------------|----------------|
E|----------------|----------------|----------------|----------------|
 1 + 2 + 3 + 4 + 1 + 2 + 3 + 4 + 1 + 2 + 3 + 4 + 1 + 2 + 3 + 4 +


Outro:

G|--1-----1---1h2-|----------------|--1-----1---1h2-|----------------|
D|0-----0---------|----------------|0-----0---------|----------------|
A|----------------|3-3-3-3-3-3-3-0-|----------------|--3-----3-------|
E|----------------|----------------|----------------|----------------|
 1 + 2 + 3 + 4 + 1 + 2 + 3 + 4 + 1 + 2 + 3 + 4 + 1 + 2 + 3 + 4 +

************************************

| x  Dead note
| h  Hammer-on

************************************

Almost there ...

Sign in to get your own page with links to favourite songs and more. You are just one click away...

Login with Facebook Login with Google