Log in

One click and you are in

Login with Facebook Login with Google

Why sign up and log in

Guitar Tabs Explorer
Olivia Rodrigo bass tabs for Jealousy, jealousy

Bass tabs with lyrics

Tuning: Standard (E A D G)


🎸 Intro:
G|-------------------------------------------|
D|------------------5-7----------------------|
A|-------------3-3-----------------5-5-3-3---|
E|----5-5---5---------------5-5--5-----------|
🎸 Verse 1:

G|-------------------------------------------|
D|------------------5-7----------------------|
A|-------------3-3-----------------5-5-3-3---|
E|----5-5---5---------------5-5--5-----------| x4
last note is dropped right before chorus


🎸 Chorus:

G|-------------------------------------------|
D|------------------5-7----------------------|
A|-------------3-3-----------------5-5-3-3---|
E|----5-5---5---------------5-5--5-----------| x4
no notes on "know me"

Post 🎸 Chorus:

G|-------------------------------------------|
D|------------------5-7----------------------|
A|-------------3-3-----------------5-5-3-3---|
E|----5-5---5---------------5-5--5-----------|

G|-------------------------------------------|
D|------------------5-7----------------------|
A|-------------3-3-----------------5---------|
E|----5-5---5---------------5-5--5-----------|

🎸 Verse 2:

G|-------------------------------------------|
D|------------------5-7----------------------|
A|-------------3-3-----------------5-5-3-3---|
E|----5-5---5---------------5-5--5-----------| x4


🎸 Chorus:

G|-------------------------------------------|
D|------------------5-7----------------------|
A|-------------3-3-----------------5-5-3-3---|
E|----5-5---5---------------5-5--5-----------| x4
no notes on "know me"

🎸 Bridge:

G|-------------------------------------------|
D|------------------5-7----------------------|
A|-------------3-3-----------------5-5-3-3---|
E|----5-5---5---------------5-5--5-----------| x4


🎸 Chorus:

G|-------------------------------------------|
D|------------------5-7----------------------|
A|-------------3-3-----------------5-5-3-3---|
E|----5-5---5---------------5-5--5-----------|

G|-------------------------------------------|
D|------------------5-7----------------------|
A|-------------3-3-----------------5---------|
E|----5-5---5---------------5-5--5-----------|

G|-------------------------------------------|
D|------------------5-7----------------------|
A|-------------3-3-----------------5-5-3-3---|
E|----5-5---5---------------5-5--5-----------|

G|-------------------------------------------|
D|------------------5-7----------------------|
A|-------------3-3-----------------5---------|
E|----5-5---5---------------5-5--5-----------|

G|-------------------------------------------|
D|------------------5-7----------------------|
A|-------------3-3-----------------5-5-3-3---|
E|----5-5---5---------------5-5--5-----------| x3

G|-------------------------------------------|
D|------------------5-7----------------------|
A|-------------3-3-----------------5-5-3-3---|
E|----5-5---5---------------5-5--5-----------|
no notes on "know me"


NOTE:
It's pretty much this same riff over and over again, pause during certain pts after chorus.

Other versions of Jealousy, Jealousy

Jealousy jealousy (Ver. 2)Bass tabs
Jealousy jealousy (Ver. 3)Bass tabs

Almost there ...

Sign in to get your own page with links to favourite songs and more. You are just one click away...

Login with Facebook Login with Google