Log in

One click and you are in

Login with Facebook Login with Google

Why sign up and log in

Guitar Tabs Explorer
Olivia Rodrigo bass tabs for Jealousy, jealousy (Ver. 3)

Jealousy, Jealousy bass tab - Olivia Rodrigo (Ver. 3)

Olivia Rodrigo bass tabs for Jealousy, jealousy (Ver. 3)

Bass tabs

  • Difficulty: Beginner
Tuning: Standard (E A D G)

🎸 Intro:

G|-----------------3-|--------------------|
D|---------------6---|--------------------|
A|-1--1---1/4--4-----|------------6-6-4-4-|
E|-------------------|-4---4---4----------|
🎸 Verse 1:

G|-----------------3-|--------------------|-----------------3-|--------------------|
D|---------------6---|--------------------|---------------6---|--------------------|
A|-1--1---1/4--4-----|------------6-6-4-4-|-1--1---1/4--4-----|------------6-6-4-4-|
E|-------------------|-4---4---4----------|-------------------|-4---4---4----------|


🎸 Pre-Chorus:

G|-----------------3-|--------------------|-----------------3-|--------------------|
D|---------------6---|--------------------|---------------6---|--------------------|
A|-1--1---1/4--4-----|------------6-6-4-4-|-1--1---1/4--4-----|------------6-6-----|
E|-------------------|-4---4---4----------|-------------------|-4---4---4----------|


🎸 Chorus:

G|-----------------3-|--------------------|-----------------3-|--------------------|
D|---------------6---|--------------------|---------------6---|--------------------|
A|-1--1---1/4--4-----|------------6-6-4-4-|-1--1---1/4--4-----|------------6-------|
E|-------------------|-4---4---4----------|-------------------|-4---4---4----------|

G|-----------------3-|--------------------|-----------------3-|--------------------|
D|---------------6---|--------------------|---------------6---|--------------------|
A|-1--1---1/4--4-----|------------6-6-4-4-|-1--1---1/4--4-----|------------6-6-4-4-|
E|-------------------|-4---4---4----------|-------------------|-4---4---4----------|

G|-----------------3-|--------------------|-----------------3-|--------------------|
D|---------------6---|--------------------|---------------6---|--------------------|
A|-1--1---1/4--4-----|------------6-6-4-4-|-1--1---1/4--4-----|------------6-6-4-4-|
E|-------------------|-4---4---4----------|-------------------|-4---4--------------|

🎸 Verse 2:

G|-----------------3-|--------------------|-----------------3-|--------------------|
D|---------------6---|--------------------|---------------6---|--------------------|
A|-1--1---1/4--4-----|------------6-6-4-4-|-1--1---1/4--4-----|------------6-6-4-4-|
E|-------------------|-4---4---4----------|-------------------|-4---4---4----------|


🎸 Pre-Chorus:

G|-----------------3-|--------------------|-----------------3-|--------------------|
D|---------------6---|--------------------|---------------6---|--------------------|
A|-1--1---1/4--4-----|------------6-6-4-4-|-1--1---1/4--4-----|------------6-6-4---|
E|-------------------|-4---4---4----------|-------------------|-4---4---4----------|

🎸 Chorus:

G|-----------------3-|--------------------|-----------------3-|--------------------|
D|---------------6---|--------------------|---------------6---|--------------------|
A|-1--1---1/4--4-----|------------6-6-4-4-|-1--1---1/4--4-----|------------6-------|
E|-------------------|-4---4---4----------|-------------------|-4---4---4----------|

G|-----------------3-|--------------------|-----------------3-|--------------------|
D|---------------6---|--------------------|---------------6---|--------------------|
A|-1--1---1/4--4-----|------------6-6-4-4-|-1--1---1/4--4-----|------------6-6-4-4-|
E|-------------------|-4---4---4----------|-------------------|-4---4---4----------|


🎸 Bridge:

G|-----------------3-|--------------------|-----------------3-|--------------------|
D|---------------6---|--------------------|---------------6---|--------------------|
A|-1--1---1/4--4-----|------------6-6-4-4-|-1--1---1/4--4-----|------------6-6-4-4-|
E|-------------------|-4---4---4----------|-------------------|-4---4---4----------|

G|-----------------3-|--------------------|-----------------3-|--------------------|
D|---------------6---|--------------------|---------------6---|--------------------|
A|-1--1---1/4--4-----|------------6-6-4-4-|-1--1---1/4--4-----|------------6-6-4-4-|
E|-------------------|-4---4---4----------|-------------------|-4---4---4----------|


🎸 Pre-Chorus:

G|-----------------3-|--------------------|-----------------3-|--------------------|
D|---------------6---|--------------------|---------------6---|--------------------|
A|-1--1---1/4--4-----|------------6-6-4-4-|-1--1---1/4--4-----|------------6-------|
E|-------------------|-4---4---4----------|-------------------|-4---4---4----------|

🎸 Chorus:

G|-----------------3-|--------------------|-----------------3-|--------------------|
D|---------------6---|--------------------|---------------6---|--------------------|
A|-1--1---1/4--4-----|------------6-6-4-4-|-1--1---1/4--4-----|------------6-6-4-4-|
E|-------------------|-4---4---4----------|-------------------|-4---4---4----------|

G|-----------------3-|--------------------|-----------------3-|--------------------|
D|---------------6---|--------------------|---------------6---|--------------------|
A|-1--1---1/4--4-----|------------6-6-4-4-|-1--1---1/4--4-----|------------6-6-4-4-|
E|-------------------|-4---4---4----------|-------------------|-4---4---4----------|


************************************

| / Slide up

************************************

Other versions of Jealousy, Jealousy

Jealousy jealousyBass tabs
Jealousy jealousy (Ver. 2)Bass tabs

Almost there ...

Sign in to get your own page with links to favourite songs and more. You are just one click away...

Login with Facebook Login with Google