Log in

One click and you are in

Login with Facebook Login with Google

Why sign up and log in

Guitar Tabs Explorer
Olivia Rodrigo bass tabs for Jealousy, jealousy (Ver. 2)

Jealousy, Jealousy bass tab - Olivia Rodrigo (Ver. 2)

Olivia Rodrigo bass tabs for Jealousy, jealousy (Ver. 2)

Bass tabs

Tuning: Standard (E A D G)


Intro:

G|---------------------------------------------------|
D|---------------------------------------------------|
A|-------------11h13---------------------------------|
E|-/6-6--6/9-9-------4-4--4/11--11--9-9--------------|

Verse:

G|---------------------------------------------------|
D|---------------------------------------------------|
A|-------------11h13---------------------------------|
E|-/6-6--6/9-9-------4-4--4/11--11--9-9--------------|


Chorus:

G|---------------------------------------------------|
D|---------------------------------------------------|
A|-------------11h13---------------------------------|
E|-/6-6--6/9-9-------4-4--4/11--11--9-9--------------|


Verse:

G|---------------------------------------------------|
D|---------------------------------------------------|
A|-------------11h13---------------------------------|
E|-/6-6--6/9-9-------4-4--4/11--11--9-9--------------|


Chorus:

G|---------------------------------------------------|
D|---------------------------------------------------|
A|-------------11h13---------------------------------|
E|-/6-6--6/9-9-------4-4--4/11--11--9-9--------------|


Bridge:

G|---------------------------------------------------|
D|---------------------------------------------------|
A|-------------11h13---------------------------------|
E|-/6-6--6/9-9-------4-4--4/11--11--9-9--------------|


Chorus:

G|---------------------------------------------------|
D|---------------------------------------------------|
A|-------------11h13---------------------------------|
E|-/6-6--6/9-9-------4-4--4/11--11--9-9--------------|


************************************

| h Hammer-on
| / Slide up

************************************

Other versions of Jealousy, Jealousy

Jealousy jealousyBass tabs
Jealousy jealousy (Ver. 3)Bass tabs

Almost there ...

Sign in to get your own page with links to favourite songs and more. You are just one click away...

Login with Facebook Login with Google