Log in

One click and you are in

Login with Facebook Login with Google

Why sign up and log in

Guitar Tabs Explorer
Olivia Rodrigo bass tabs for Good 4 u

Bass tabs with lyrics

  • Difficulty: Beginner
Tuning: Standard (E A D G)

🎸 Intro:

G|-------------------|--------------------|
D|-------------------|--------------------|
A|-------------------|--------------------|
E|-0h2--2---2----0---|---0h2--2--2----0---|
🎸 Verse 1:

G|-------------------|-------------------|--------------------|---------------------|
D|-------------------|-------------------|--------------------|---------------------|
A|-------------------|-------------------|--------------------|-----------------5--4|
E|-0h2--2---2----0---|--0h2--2---2----0--|---0h2--2---2----0--|---0h2--2---2--------|

G|-------------------|-------------------|--------------------|-----------------|
D|-------------------|-------------------|--------------------|-----------------|
A|-------------------|-------------------|--------------------|-----------------|
E|-2--2---2----0-----|--0h2--2---2----0--|---0h2--2---2----0--|---0h2--2---2----|


🎸 Chorus:

G|-----------|--------------|----------|-----------------|
D|-----------|--------------|----------|-----------------|
A|--5-5-5-5--|---------4h5--|-7-7-7-7--|-9-9-9---7-7-7---| x4
E|-----------|-5-5-5-5------|----------|-----------------|


Post-🎸 Chorus:

G|-----------|-------------|----------|-------------|
D|-----------|-------------|----------|-------------|
A|-----------|------2-2-2--|----------|------2-2-2--|
E|--2-2-2-2--|-0-0---------|--2-2-2-2-|-0-0---------|

🎸 Verse 2:

(Bass comes in after "...everything you want")
(The notes in the fourth measure are hit during the lyric "what the f-ck is up with that")

G|-------------------|-------------------|--------------------|------------------|
D|-------------------|-------------------|--------------------|------------------|
A|-------------------|-------------------|--------------------|------------------|
E|----REST-----------|--0h2--2---2----0--|---0h2--2---2----0--|---0h2---2--2--0--|

G|-------------------|-------------------|--------------------|-----------------|
D|-------------------|-------------------|--------------------|-----------------|
A|-------------------|-------------------|--------------------|-----------------|
E|-0h2--2---2----0---|--0h2--2---2----0--|---0h2--2---2----0--|---0h2--2---2----|


🎸 Chorus:

G|-----------|--------------|----------|-----------------|
D|-----------|--------------|----------|-----------------|
A|--5-5-5-5--|---------4h5--|-7-7-7-7--|-9-9-9---7-7-7---| x4
E|-----------|-5-5-5-5------|----------|-----------------|


Post-🎸 Chorus:

G|-----------|-------------|----------|-------------|
D|-----------|-------------|----------|-------------|
A|-----------|------2-2-2--|----------|------2-2-2--|
E|--2-2-2-2--|-0-0---------|--2-2-2-2-|-0-0---------|


Guitar 🎸 Solo:
(Bass comes in after the initial note of the guitar solo)

G|-----------|--------------|----------|-----------------|
D|-----------|--------------|----------|-----------------|
A|------5-5--|---------4h5--|-7-7-7-7--|-9-9-9---7-7-7---| x2
E|-----------|-5-5-5-5------|----------|-----------------|


🎸 Bridge:

G|-------|-------|------|----------|
D|-------|-------|------|----------|
A|-------|-------|------|--2-2-----| x4
E|--2-2--|-------|-0-0--|----------|

G|-----------|----------|----------|----------|
D|-----------|----------|----------|----------|
A|-----------|----------|----------|-2-2-2-2--| x4
E|--2-2-2-2--|-2-2-2-2--|-0-0-0-0--|----------|


🎸 Chorus:
(Bass comes in after "sociopath")

G|-----------|--------------|----------|-----------------|
D|-----------|--------------|----------|-----------------|
A|--5-5-5-5--|---------4h5--|-7-7-7-7--|-9-9-9---7-7-7---| x2
E|-----------|-5-5-5-5------|----------|-----------------|


Post-🎸 Chorus:

G|-----------|-------------|----------|-------------|
D|-----------|-------------|----------|-------------|
A|-----------|------2-2-2--|----------|------2-2-2--|
E|--2-2-2-2--|-0-0---------|--2-2-2-2-|-0-0---------|


🎸 Outro:

G|-------|-------|------|------------|
D|-------|-------|------|------------|
A|-------|-------|------|--2-2-------| x4
E|--2-2--|-------|-0-0--|--------0-0-|


*************************

| h  Hammer-on

*************************

Other versions of Good 4 U

Good 4 u (Ver. 2)Bass tabs

Almost there ...

Sign in to get your own page with links to favourite songs and more. You are just one click away...

Login with Facebook Login with Google