Log in

One click and you are in

Login with Facebook Login with Google

Why sign up and log in

Guitar Tabs Explorer
Olivia Rodrigo bass tabs for Good 4 u (Ver. 2)

Bass tabs

Tuning: Standard 5 String (BEAD)


Intro/🎸 Verse 1:

D|-----------------------|
A|-----------------------| x5
E|-----------------------|
B|--2/7---7----7----5----|
    then
D|-----------------------|
A|-----------------------| x1
E|-----------------------|
B|--2/3---3----3----2----|
    then
D|-----------------------|
A|-----------------------| x3
E|-----------------------|
B|--2/7---7----7----5----|
    then
D|-----------------------|
A|-----------------------| x1
E|-----------------------|
B|---3--3---3--2---------|
    then


🎸 Chorus:
                           ()=tied note
D|-----------------|------------------|--------------|-------------|
A|--5--5---5-5-5---|------------------|-7--7--7-7-7-7|-7-7-7-9--7--| x2
E|---------------5-|-(5)-5-5---5-5-5-5|--------------|-------------|
B|-----------------|------------------|--------------|-------------|

D|-----------------|---------------------|-----------------|--------------|
A|--5--5---5-5-5---|-----12--12-12-12-12-|----7--7--7-7-7-7|-9-7-7-/11--11|
E|---------------5-|-(5)-----------------|-----------------|--------------|
B|-----------------|---------------------|-----------------|--------------|

D|-----------------|------------------|--------------|------------------|
A|--5--5---5-5-5---|------------------|-7--7--7-7-7-7|-/11-11-11-9--9--9|
E|---------------5-|-(5)-5-5---5-5-5-5|--------------|------------------|
B|-----------------|------------------|--------------|------------------|

🎸 Interlude:

D|---------------------------------------------------------------------------|
A|-9--9--9-9-9-7--7-/14--14-14-14--------------------------------------------|
E|---------------------------------------------------------------------------|
B|---------------------------------------------------------------------------|


🎸 Verse 2:

D|-----------------------|
A|-----------------------| x2
E|-----------------------|
B|--2/7---7----7----5----|
    then
D|-----------------------|
A|-----------------------| x1
E|-----------------------|
B|--2/3---3----3----2----|
    then
D|-----------------------|
A|-----------------------| x3
E|-----------------------|
B|--2/7---7----7----5----|
    then
D|-----------------------|
A|-----------------------| x1
E|-----------------------|
B|---3--3---3--2---------|

Then Play Chorus and Interlude then,

D|-----------------|------------------|--------------|-------------|
A|---------5-5-5---|------------------|-7--7--7-7-7-7|-7-7-7-9--7--| x2
E|---------------5-|-(5)-5-5---5-5-5-5|--------------|-------------|
B|-----------------|------------------|--------------|-------------|


🎸 Bridge:

D|-----------------|--------------|
A|--9-9------------|--7-7---------| x4
E|-----------------|---------7-7--|
B|-----------------|--------------|
       then
D|-----------------|-----------------|
A|-9-9-9-9-9-9-9-9-|-7-7-7-7---------| x3
E|-----------------|---------7-7-7-7-|
B|-----------------|-----------------|
       then
D|-----------------|-----------------|
A|-9-9-9-9-9-9-9-9-|-7-7-7-7---------|
E|-----------------|---------7---7---|
B|-----------------|-----------------|


Last 🎸 Chorus:

D|-----------------|---------------------|-----------------|--------------|
A|--5--5---5-5-5---|-----12--12-12-12-12-|----7--7--7-7-7-7|-9-7-7-/11--11|
E|---------------5-|-(5)--------------- |-----------------|--------------|
B|-----------------|---------------------|-----------------|--------------|

D|-----------------|------------------|--------------|------------------|
A|--5--5---5-5-5---|------------------|-7--7--7-7-7-7|-/11-11-11-9--9--9| x2
E|---------------5-|-(5)-5-5---5-5-5-5|--------------|------------------|
B|-----------------|------------------|--------------|------------------|


Ending:

D|-------------------------------------------------------------------------|
A|-9--9--9-9-9-7--7-/14--14-14-14------------------------------------------|
E|-------------------------------------------------------------------------|
B|-------------------------------------------------------------------------|


************************************

| /  Slide up
| (n) Ghost note


************************************

Other versions of Good 4 U

Good 4 uBass tabs

Almost there ...

Sign in to get your own page with links to favourite songs and more. You are just one click away...

Login with Facebook Login with Google