Log in

One click and you are in

Login with Facebook Login with Google

Why sign up and log in

Guitar Tabs Explorer
Olivia Rodrigo chords for Favorite crime ukulele

Favorite Crime Ukulele chords - Olivia Rodrigo

Olivia Rodrigo chords for Favorite crime ukulele

Guitar chords with lyrics

Tuning: G C E A (G C E A)

Main Verse Finger picking Pattern:
   G
A|----------2------------------------2---------------|----------2-----------------------------2-------------|
E|--------------3-------3----------------3-------3---|--------------3-------3---------3-----------3-----3---|
C|---2--2-----------2---------2--2-----------2-------|---2--2-----------2---------2-------2----------2------|
G|-- ------------------------------------------------|------------------------------------------------------|
   >   >         >   >          >   >         >      >
  Em
A|----------2------------------------2---------------|----------2-----------------------------2-------------|
E|--------------3-------3----------------3-------3---|--------------3-------3---------3-----------3-----3---|
C|---4--4-----------4---------4--4-----------4-------|---4--4-----------4---------4-------4----------4------|
G|---------------------------------------------------|------------------------------------------------------|
   >   >         >   >          >   >         >      >


Verse 1:
 G
Know that I loved you so bad
G
I let you treat me like that
Em
I was your willing accomplice, honey
  G
And I watched as you fled the scene
 G
Doe-eyed as you buried me
Em
One heart broke, four hands bloody

Main Chorus Fingerpicking Pattern:
   D
A|----------0------------------------0---------------|----------0-----------------------------0-------------|
E|--------------2-------2----------------2-------2---|--------------2-------2---------2-----------2-----2---|
C|---2--2-----------2---------2--2-----------2-------|---2--2-----------2---------2-------2----------2------|
G|---------------------------------------------------|------------------------------------------------------|
   >   >         >   >          >   >         >      >
  Cmaj7
A|----------2------------------------2---------------|----------2-----------------------------2-------------|
E|--------------0-------0----------------0-------0---|--------------0-------0---------0-----------0-----0---|
C|---0--0-----------0---------0--0-----------0-------|---0--0-----------0---------0-------0----------0------|
G|---------------------------------------------------|------------------------------------------------------|
   >   >         >   >          >   >         >      >

Chorus:
       D
The things I did
             Cmaj7
Just so I could call you mine
        D
The things you did
                 Cmaj7
Well, I hope I was your favorite crime


Verse 2:
 G
You used me as an alibi
G
I crossed my heart as you crossed the line
  Em
And I defended you to all my friends
     G
And now every time a siren sounds
G
I wonder if you're around
  Em
Cuz you know that I'd do it all again


Chorus:
       D
The things I did
             Cmaj7
Just so I could call you mine
        D
The things you did
                 Cmaj7
Well, I hope I was your favorite crime


Bridge:
   Am
It's bittersweet to think about the damage that we do
  Em              D
Cuz I was going down, but I was doing it with you
    Am
Yeah, everything we broke and all the trouble that we made
  Em              D     Cmaj7
But I say that I hate you with a smile on my face
         Cmaj7
Oh, look what we became


Chorus:
         D
Oh, the things I did
             Cmaj7
Just so I could call you mine
        D
Oh, the things you did
                 Cmaj7
Well, I hope I was your favorite crime


Outro:
       Cmaj7
Your favorite crime
        Em
Your favorite crime
          N.C.
Cuz baby, you were mine


******************
> - Accented Note
******************

Almost there ...

Sign in to get your own page with links to favourite songs and more. You are just one click away...

Login with Facebook Login with Google