Log in

One click and you are in

Login with Facebook Login with Google

Why sign up and log in

Guitar Tabs Explorer
Olivia Rodrigo chords for Deja vu ukulele

Guitar chords with lyrics

Tuning: G C E A (G C E A)

♫ Intro:
  D Dsus2      A
A|------------------|-4---4---4---4----4---4---4---4---|
E|-2-0-2-0--2-0-2-0-|-5-7-5-7-5-7-5-7--5-7-5-7-5-7-5-7-|
C|-2-2-2-2--2-2-2-2-|-4---4---4---4----4---4---4---4---|
G|-2-2-2-2--2-2-2-2-|-4---4---4---4----4---4---4---4---|

          or
          |-4---4---4---4----4---4---4---4---|
          |-5---5---5---5----5---5---5---5---|
          |-4---4---4---4----4---4---4---4---|
          |-4-4-4-4-4-4-4-4--4-4-4-4-4-4-4-4-|
Verse 1:
D
Car rides to Malibu
      A
Strawberry ice cream, one spoon for two
      D
And trading jackets
                  A
Laughing 'bout how small it looks on you (Ah-ha-ha-ha)

D
Watching reruns of Glee
    A
Bein’ annoyin', singing in harmony
      D                       A
I bet she's braggin' to all her friends, saying you’re so unique (Hm)


♫ Pre-Chorus:
         D
So when you gonna tell her that we did that too?
        A
She thinks it's special, but it's all re-used
       Bm
That was our place, I found it first
                         A
I made the jokes you tell to her when she's with you

Chorus:
                  D
Do you get déjà vu when she's with you?
          A
Do you get déjà vu, hmm? (Ha)
  N.C.
Do you get déjà vu, huh?


♫ Instrumental:
D A


♫ Verse 2:
    D
Do you call her, almost say my name?
        A
'Cause let's be honest, we kinda do sound the same
    D
Another actress
                 A
I hate to think that I was just your type
      D
I bet that she knows Billy Joel

'Cause you played her "Uptown Girl"
    A
You’re singing it together
                  D
Now I bet you even tell her how you love her
               A
In between the chorus and the versePre-Chorus:
  N.C.      D
So when you gonna tell her that we did that too?
        A
She thinks it’s special, but it's all re-used
       Bm
That was the show we talked about
                            A
Played you the songs she’s singing now when she's with you


♫ Chorus:
                  D
Do you get déjà vu when she's with you?
             A
Do you get déjà vu? (Huh)
  N.C.
Do you get déjà vu?


♫ Bridge:
D
Strawberry ice cream in Malibu

Don't act like we didn’t do that shit too
A
You're trading jackets like we used to do

(Yeah, everything is all re-used)
D
Play her piano, but she doesn't know

That I was the one who taught you Billy Joel
A
A different girl now, but there's nothing new


♫ Outro:
           D  A
I know you get déjà vu
           D  A
I know you get déjà vu
    N.C.
I know you get déjà vu





-- Vocal melody

♫ Verse 1:
  D          A            D         A
A|-4-2--0-4-4-2-|-4-2-0-4----|---4-4--2--2-0-0-|-4----2-0-2-0-4-2-0-2--0-|
E|--------------|----------5-|-0---------------|---2---------------------|
C|--------------|------------|-----------------|-------------------------|
G|--------------|------------|-----------------|-------------------------|

  D          A              D           A
A|-4-2--4-4-4-2-|-4-2-0-4----|-0-2-4-4-4-2-|-4-2-0--4------4---4---4-2-0-2-0-|
E|--------------|----------5-|-------------|----------2--5---5---5-----------|
C|--------------|------------|-------------|---------------------------------|
G|--------------|------------|-------------|---------------------------------|


♫ Pre-Chorus:
       D             A
A|---4-2-0-2-4----|---4--4-4-2-|-4-2-0-4----|---4-4-4-2-|
E|-5------------5-|-5----------|----------0-|-5---------|
C|----------------|------------|------------|-----------|
G|----------------|------------|------------|-----------|

     Bm                  A
A|-4-2-0---|-4-2-0---|-4-2-0---|-4-2-0---4-2-0-7--|
E|-------2-|-------2-|-------2-|-------2----------|
C|---------|---------|---------|------------------|
G|---------|---------|---------|------------------|

Other versions of Deja Vu Ukulele

Deja vu ukulele (Ver. 2)Chords

Almost there ...

Sign in to get your own page with links to favourite songs and more. You are just one click away...

Login with Facebook Login with Google