Log in

One click and you are in

Login with Facebook Login with Google

Why sign up and log in

Guitar Tabs Explorer
Olivia Rodrigo tabs for Deja vu

Guitar tabs

A chord diagramE MajorE |-------|--14-12-14-12-14-12-14-12---|--14-12-14-12-14-12-14-12---|
A chord diagramBB |-------|----------------------------|----------------------------|
A chord diagramG+G |-------|----------------------------|----------------------------|
A chord diagramD MajorD |-------|----------------------------|----------------------------|
A chord diagramA augmentedA |-------|----------------------------|----------------------------|
A chord diagramE MajorE |-------|----------------------------|----------------------------|
--9--7--9--7--9--7--9--7----|--9--7--9--7--9--7--9--7----|
----------------------------|----------------------------|
----------------------------|----------------------------|
----------------------------|----------------------------|
----------------------------|----------------------------|
----------------------------|----------------------------|


----------------------------|----------------------------|
--2--------0L-0-------------|--2--2L-2--0L-0--2----------|
-----------------------2----|--------------------2--2----|
----------------------------|----------------------------|
----------------------------|----------------------------|
----------------------------|----------------------------|


----------------------------|----------------------------|----------------|
--2-------------------------|--2--2-----0L-0--2----------|--2-------------|
--------------2--------2----|--------------------2--2----|----------------|
----------------------------|----------------------------|--------4-------|
----------------------------|----------------------------|----------------|
----------------------------|----------------------------|----------------|


----------------------------------------------------|
--0-----------0-----------2-----0--------------0----|
--------2-----------2-----------------2-----2-------|
----------------------------------------------------|
----------------------------------------------------|
----------------------------------------------------|


----------------------------|-------|----------------------------|
--0-------------------------|-------|--2--------0L-0-------------|
-----2L-2L-------2----------|-------|-----------------------2----|
----------------------------|-------|----------------------------|
----------------------------|-------|----------------------------|
----------------------------|-------|----------------------------|


----------------------------|
--2--2L-2--0L-0--2----------|
--------------------2--2----|
----------------------------|
----------------------------|
----------------------------|


----------------------------------------------------|
--2--------------------------------------------0----|
--------------------------2-----------------2-------|
----------------------------------------------------|
----------------------------------------------------|
----------------------------------------------------|


----------------------------|----------------|
--2--2--2--0L-0--2----------|--2-------------|
--------------------2--2----|----------------|
----------------------------|--------4-------|
----------------------------|----------------|
----------------------------|----------------|


----------------------------------------------------|
--0-----------0-----------2-----0--------------0----|
--------2-----------2-----------------2-----2-------|
----------------------------------------------------|
----------------------------------------------------|
----------------------------------------------------|


----------------------------------------------------|
--0-------------------------------------------------|
--------2L----2L----------------2-------------------|
----------------------------------------------------|
----------------------------------------------------|
----------------------------------------------------|


-----------5--9--7--5--7----|--9-------------------------|
----------------------------|--------------7--------7----|
----------------------------|----------------------------|
----------------------------|----------------------------|
----------------------------|----------------------------|
----------------------------|----------------------------|


--9--9--9--7L-7--9--7--5----|--9-------------------------|
----------------------------|--------------5--------5----|
----------------------------|----------------------------|
----------------------------|----------------------------|
----------------------------|----------------------------|
----------------------------|----------------------------|


--9-----9-----9-----7L----7-----9-----7-------------|
-----------------------------------------10---------|
----------------------------------------------------|
----------------------------------------------------|
----------------------------------------------------|
----------------------------------------------------|


--------9-----7-----------------9-----7-------------|
--7--------------10-------7--------------10---------|
----------------------------------------------------|
----------------------------------------------------|
----------------------------------------------------|
----------------------------------------------------|


--------9-----7-----------------9-----7-------------|
--7--------------10-------7-----------------10------|
----------------------------------------------------|
----------------------------------------------------|
----------------------------------------------------|
----------------------------------------------------|


--12-------------------------------------------0----|
----------------------------------------------------|
----------------------------------------------------|
----------------------------------------------------|
----------------------------------------------------|
----------------------------------------------------|


--0--2--5--7--9--9--7-------|
-----------------------10---|
----------------------------|
----------------------------|
----------------------------|
----------------------------|


--12-14-12L---12----14L---14-------------------0----|
----------------------------------------------------|
----------------------------------------------------|
----------------------------------------------------|
----------------------------------------------------|
----------------------------------------------------|



--0--2--5--7--8--7-----7----|
----------------------------|
----------------------------|
----------------------------|
----------------------------|
----------------------------|


-----------------------------------------------0----|
----------------------------------------------------|
----------------------------------------------------|
----------------------------------------------------|
----------------------------------------------------|
----------------------------------------------------|


--0--2--5--7--9-----5L------|--5-------||
----------------------------|----------||
----------------------------|----------||
----------------------------|----------||
----------------------------|----------||
----------------------------|----------||

🏷Legend
L - tied note
x - dead note
h - hammer on/pull off
b - bend
s - slide
~ - vibrato
g - ghost note
> - accentuated note
t - trill
M - palm mute
. - staccato
P - popping (bass)
S - slapping (bass)
+ - tapping
W - wide vibrato
< - fade in
w - whammy bar
= - tremolo picking
v - brush up
^ - brush down
V - pick stroke up
n - pick stroke down

Other versions of Deja Vu

Deja vuChords
Deja vu (Ver. 2)Chords
Deja vu ukuleleChords
Deja vu ukulele (Ver. 2)Chords
Deja vu (Ver. 2)Tabs
Deja vu (Ver. 3)Tabs
Deja vu - introTabs

Almost there ...

Sign in to get your own page with links to favourite songs and more. You are just one click away...

Login with Facebook Login with Google