Log in

One click and you are in

Login with Facebook Login with Google

Why sign up and log in

Guitar Tabs Explorer
Olivia Rodrigo bass tabs for Deja vu

Bass tabs

Tuning: Standard (E A D G)

🎸 Intro:

G|-------|-------|-------|-------|
D|-------|-------|-------|-------|
A|-5-----|-------|-0-----|-------|
E|-------|-------|-------|-------|
🎸 Verse 1:

G|-------|-------|-------|-------|
D|-------|-------|-------|-------|
A|-5-----|-------|-0-----|-------| x2
E|-------|-------|-------|-------|


🎸 Verse 2:

G|-------|-------|-------|-------|
D|-------|-------|-------|-------|
A|-5-----|-------|-0-----|-------| x2
E|-------|-------|-------|-------|


🎸 Pre-Chorus:

G|-------|-------|-------|-------|
D|-------|-------|-------|-------|
A|-5-----|-------|-0-----|-------|
E|-------|-------|-------|-------|

G|-------|-------|-------|-------|
D|-------|-------|-------|-------|
A|-2-----|-------|-0-----|-------|
E|-------|-------|-------|-------|

🎸 Chorus:

G|-------|-------|-------|-------|
D|-------|-------|-------|-------|
A|-5-----|-------|-0-----|-x-----|
E|-------|-------|-------|-------|


🎸 Interlude:

G|-------|-------|-------|-------|
D|-------|-------|-------|-------|
A|-5-----|-------|-0-----|-------|
E|-------|-------|-------|-------|


🎸 Verse 3:

G|-------|-------|-------|-------|
D|-------|-------|-------|-------|
A|-5-----|-------|-0-----|-------| x2
E|-------|-------|-------|-------|


🎸 Verse 4:

G|-------|-------|-------|-------|
D|-------|-------|-------|-------|
A|-5-----|-------|-0-----|-------| x2
E|-------|-------|-------|-------|


🎸 Pre-Chorus:

G|-------|-------|-------|-------|
D|-------|-------|-------|-------|
A|-5-----|-------|-0-----|-------|
E|-------|-------|-------|-------|

G|-------|-------|-------|-------|
D|-------|-------|-------|-------|
A|-2-----|-------|-0-----|-------|
E|-------|-------|-------|-------|


🎸 Chorus:

G|-------|-------|-------|-------|
D|-------|-------|-------|-------|
A|-5-----|-------|-0-----|-x-----|
E|-------|-------|-------|-------|


🎸 Bridge:

G|-------|-------|-------|-------|
D|-------|-------|-------|-------|
A|-2-----|-------|-0-----|-------| x2
E|-------|-------|-------|-------|


🎸 Outro:

G|-------|-------|-------|-------|
D|-------|-------|-------|-------|
A|-2-----|-------|-0-----|-------|
E|-------|-------|-------|-------|

G|-------|-------|-------|-------|
D|-------|-------|-------|-------|
A|-2-----|-------|-0-----|-x-----|
E|-------|-------|-------|-------|


************************************

| x Dead note

************************************
ⓘ Bass guitar tab for 'Deja Vu' by Olivia Rodrigo, a female pop artist from Temecula, California, USA. Olivia Rodrigo was born in 2003. Olivia Rodrigo is known for her happy manufactured pop music.

Almost there ...

Sign in to get your own page with links to favourite songs and more. You are just one click away...

Login with Facebook Login with Google