Log in

One click and you are in

Login with Facebook Login with Google

Why sign up and log in

Guitar Tabs Explorer
Olivia Rodrigo bass tabs for Brutal

Bass tabs

Tuning: Standard (E A D G)

♫ Intro:

G|------------------------------------|
D|------------------------------------|
A|------------------------------------|
E|-7-7-7-7-7-6-5----------------------| x4
Verse 1:

G|------------------------------------|
D|------------------------------------|
A|------------------------------------|
E|-7-7-7-7-7-6-5----------------------| x4

G|------------------------------------|
D|------------------------------------|
A|------------------------------------|
E|-5-5-5-5-5-5-5----------------------| x2

G|------------------------------------|
D|------------------------------------|
A|------------------------------------|
E|-4-4-4-4-4-4-4----------------------|

G|------------------------------------|
D|------------------------------------|
A|------------------------------------|
E|-3-3-3-3-2-2-2-2--------------------|


♫ Chorus:

G|------------------------------------|
D|------------------------------------|
A|------------------------------------|
E|-7-7-7-7-7-7-7----------------------| x3

G|------------------------------------|
D|------------------------------------|
A|------------------------------------|
E|-7-7-7-7-7-6-5----------------------|

G|------------------------------------|
D|------------------------------------|
A|------------------------------------|
E|-5-5-5-5-5-5-5----------------------|

G|------------------------------------|
D|------------------------------------|
A|-7-7-7-7----------------------------|
E|---------5-5-5-5--------------------|

G|------------------------------------|
D|------------------------------------|
A|------------------------------------|
E|-7-7-7-7-7-7-7----------------------|


Break:

G|------------------------------------|
D|------------------------------------|
A|------------------------------------|
E|-7-7-7-7-7-6-5----------------------| x4


♫ Verse 2:

G|------------------------------------|
D|------------------------------------|
A|------------------------------------|
E|-7-7-7-7-7-6-5----------------------| x4

G|------------------------------------|
D|------------------------------------|
A|------------------------------------|
E|-5-5-5-5-5-5-5----------------------| x2

G|------------------------------------|
D|------------------------------------|
A|------------------------------------|
E|-4-4-4-4-4-4-4----------------------|

G|------------------------------------|
D|------------------------------------|
A|------------------------------------|
E|-3-3-3-3-2-2-2-2--------------------|


♫ Chorus:

G|------------------------------------|
D|------------------------------------|
A|------------------------------------|
E|-7-7-7-7-7-7-7----------------------| x3

G|------------------------------------|
D|------------------------------------|
A|------------------------------------|
E|-7-7-7-7-7-6-5----------------------|

G|------------------------------------|
D|------------------------------------|
A|------------------------------------|
E|-5-5-5-5-5-5-5----------------------|

G|------------------------------------|
D|------------------------------------|
A|-7-7-7-7----------------------------|
E|---------5-5-5-5--------------------|

G|------------------------------------|
D|------------------------------------|
A|------------------------------------|
E|-7-7-7-7-7-7-7----------------------|


♫ Outro:

G|------------------------------------|
D|------------------------------------|
A|------------------------------------|
E|-7-7-7-7-7-6-5----------------------| x4

Other versions of Brutal

Brutal (Ver. 2)Bass tabs

Almost there ...

Sign in to get your own page with links to favourite songs and more. You are just one click away...

Login with Facebook Login with Google