Log in

One click and you are in

Login with Facebook Login with Google

Why sign up and log in

Guitar Tabs Explorer
Olivia Rodrigo bass tabs for Brutal (Ver. 2)

Bass tabs

  • Difficulty: Beginner
Tuning: Standard (E A D G)


Intro:

G|---------------------------------------------------------------------------|
D|---------------------------------------------------------------------------|
A|---------------------------------------------------------------------------|
E|7-7-7-7-7-6-5---7-7-7-7-7-6-5---7-7-7-7-7-6-5---7-7-7-7-7-6-5--------------|

Verse 1: Palm Mute

G|-------------------------------------------------------------|
D|-------------------------------------------------------------|
A|-------------------------------------------------------------|
E|7-7-7-7-7-6-5---7-7-7-7-7-6-5---7-7-7-7-7-6-5---7-7-7-7-7-6-5|

G|---------------------------------------------------------------|
D|---------------------------------------------------------------|
A|-------------------------------------------------------/9-9-9-9|
E|5-5-5-5-5-5-5---5-5-5-5-5-5-5---4-4-4-4-4-4-4---3-3-3-3--------|


Chorus:

G|---------------------------------------------------------------|
D|---------------------------------------------------------------|
A|7-7-7-7-7-7-7-7-7-7-7-7-7-7-7-7--------------------------------|
E|0-0-0-0-0-0-0-0-0-0-0-0-0-0-0-0-7-7-7-7-7-7-7-7-7-7-7-7-7-6-6-6|

G|-------------------------------------------------|
D|-------------------------------------------------|
A|----------------7-7-7-7-7-7-7-7------------------|
E|5-5-5-5-5-5-5-5-0-0-0-0-0-0-0-0--7-7-7-7-7-7-7-7-|

{Post-Chorus}

G|---------------------------------------------------------------------------|
D|---------------------------------------------------------------------------|
A|---------------------------------------------------------------------------|
E|7-7-7-7-7-6-5---7-7-7-7-7-6-5---7-7-7-7-7-6-5---7-7-7-7-7-6-5--------------|


Verse 2: Palm Mute

G|-------------------------------------------------------------|
D|-------------------------------------------------------------|
A|-------------------------------------------------------------|
E|7-7-7-7-7\6\5---7-7-7-7-7\6\5---7-7-7-7-7\6\5---7-7-7-7-7\6\5|

G|---------------------------------------------------------------|
D|---------------------------------------------------------------|
A|---------------------------------------------------------------|
E|5-5-5-5-5\4\3---5-5-5-5-5\4\3---4-4-4-4-4\3\2---3-3-3-3\2-2-2-2|


Chorus:

G|---------------------------------------------------------------|
D|---------------------------------------------------------------|
A|7-7-7-7-7-7-7-7-7-7-7-7-7-7-7-7--------------------------------|
E|0-0-0-0-0-0-0-0-0-0-0-0-0-0-0-0-7-7-7-7-7-7-7-7-7-7-7-7-7-6-6-6|

G|-------------------------------------------------|
D|-------------------------------------------------|
A|----------------7-7-7-7-7-7-7-7------------------|
E|5-5-5-5-5-5-5-5-0-0-0-0-0-0-0-0--7-7-7-7-7-7-7-7-|

{Post-Chorus}

G|---------------------------------------------------------------------------|
D|---------------------------------------------------------------------------|
A|---------------------------------------------------------------------------| x2
E|7-7-7-7-7-6-5---7-7-7-7-7-6-5---7-7-7-7-7-6-5---7-7-7-7-7-6-5--------------|

************************************

| /  Slide up
| \  Slide down
| PM Palm mute

************************************

Other versions of Brutal

BrutalBass tabs

Almost there ...

Sign in to get your own page with links to favourite songs and more. You are just one click away...

Login with Facebook Login with Google