Log in

One click and you are in

Login with Facebook Login with Google

Why sign up and log in

Guitar Tabs Explorer
Steve Oliver tabs for Positive energy

Guitar tabs

This is the title track from his Positive Energy CD.
Enjoy!


Tablature Explanation:
p=pull-off
h=hammer-on
/=slide up
\=slide down
~=vibrato

Note: Many of the slides down (especially the ones
that are more than
2 frets) are just meant to slide down toward the lower

note, and fade,
 before actually reaching that note.



E-|-----------5--7\5------------|-----5--------5-----7--5----------|
B-|--5--6--7-------------5--6---|--7-----7-------------------5--6--|
G-|-----------------------------|----------------------------------|
D-|-----------------------------|----------------------------------|
A-|-----------------------------|----------------------------------|
E-|-----------------------------|----------------------------------|


E-|-----5--------5-----7-----10-----8h9------|
B-|--7-----7---------------------------------|
G-|------------------------------------------|
D-|------------------------------------------|
A-|------------------------------------------|
E-|------------------------------------------|





E-|--5h7--5\3----------|------------------------|------------------|
B-|------------6/7-----|------------------------|---------6/7------|
G-|-----------------7--|---------7--7--7--------|-----7--------7/9-|
D-|--------------------|--9--7------------9--7--|--9---------------|
A-|--------------------|------------------------|------------------|
E-|--------------------|------------------------|------------------|





E-|-----|--------------------:-----------------------------|------:
B-|-----|---6/7--------------:-----------------------------|------:
G-|-----|----------7---------:--7----7--7-----------7---6--|------:
D-|-----|-------------9--7---:-------------9--7--9---------|--7/9-:
A-|-----|--------------------:-----------------------------|------:
E-|-----|--------------------:-----------------------------|------:





E-|-12/14--------------------:--------------------------12/14--10/|
B-|--------15\12--12------15-:-15--15--12------12--15-------------|
G-|-------------------14-----:-------------14---------------------|
D-|--------------------------:------------------------------------|
A-|--------------------------:------------------------------------|
E-|--------------------------:------------------------------------|





E-|-12-|-10/12--10--8h10p8--7--8--7------|-------------------------:
B-|----|----------------------------8h10-|8------------------10----:
G-|----|---------------------------------|------------12--12----12-:
D-|----|---------------------------------|--10h11h12---------------:
A-|----|---------------------------------|-------------------------:
E-|----|---------------------------------|-------------------------:





E-|------10/12--10--9h10p9\7---------:-----5--7\5--------------5---:
B-|--10-----------------------5--6---:--7-------------5--6--7------:
G-|----------------------------------:-----------------------------:
D-|----------------------------------:-----------------------------:
A-|----------------------------------:-----------------------------:
E-|----------------------------------:-----------------------------:



E-|--------5-----7--5--------------5---:
B-|--7--------------------5--6--7------:
G-|------------------------------------:
D-|------------------------------------:
A-|------------------------------------:
E-|------------------------------------:






E-|-------5---7---10---8h9-----5h7---:-----5\3--------------5--7\-:
B-|--7-------------------------------:-------------5--6--7--------:
G-|----------------------------------:----------------------------:
D-|----------------------------------:----------------------------:
A-|----------------------------------:----------------------------:
E-|----------------------------------:----------------------------:






E-|--5--------------5--------5-----7---:
B-|--------5--6--7-----7---------------:
G-|------------------------------------:
D-|------------------------------------:
A-|------------------------------------:
E-|------------------------------------:





E-|--5-------------5--------5----7---|----10-----8h9-----5h7----5\-|
B-|-------5--6--7-----7--------------|-----------------------------|
G-|----------------------------------|-----------------------------|
D-|----------------------------------|-----------------------------|
A-|----------------------------------|-----------------------------|
E-|----------------------------------|-----------------------------|





E-|--3--7\5--------------------:---------------------------------:
B-|----------6/7---------------:---------------------------------:
G-|------------------7---------:-----7-----7--7-----------7------:
D-|---------------------9--7---:-----------------9--7--9---------:
A-|----------------------------:---------------------------------:
E-|----------------------------:---------------------------------:





E-|-------------------:---------:--------------------------:
B-|--6/7--------------:---------:--6/7---------------------:
G-|----------7/9------:---------:----------7-----------7---:
D-|-------------------:---------:-------------9--7---------:
A-|-------------------:---------:--------------------------:
E-|-------------------:---------:--------------------------:






E-|--------------------------:----------------------:--------12/14-:
B-|--------------------------:----------------------:--------------:
G-|-7--7----------7--6-------:----------------------:--------------:
D-|------9--7--9--------7h9p-:-7--------------------:--------------:
A-|--------------------------:----10--9h10--9--7----:-7h9p7--------:
E-|--------------------------:-------------------10-:--------------:





E-|------------------------:---------------------------12/14--10/-:
B-|--15\12--12----------15-:--15--15--12------12--15--------------:
G-|-------------14\13------:--------------14----------------------:
D-|------------------------:--------------------------------------:
A-|------------------------:--------------------------------------:
E-|------------------------:--------------------------------------:





E-|-12-:-10/12--10--8h10p8--7--8--7----|---------------------------|
B-|----:-----------------------------8h|-10--8-------------------10|
G-|----:-------------------------------|-----------------12--12----|
D-|----:-------------------------------|-------10h11h12------------|
A-|----:-------------------------------|---------------------------|
E-|----:-------------------------------|---------------------------|





E-|---------10/12--10--9h10p9\7---:-------5--7\5----------:
B-|-----10----------------------5-:-6--7----------5--6--7-:
G-|-12----------------------------:-----------------------:
D-|-------------------------------:-----------------------:
A-|-------------------------------:-----------------------:
E-|-------------------------------:-----------------------:





E-|-5------5--7--5-----------:-5-------5----7----10----8h9----5h-|
B-|----7-------------5--6--7-:----7------------------------------|
G-|--------------------------:-----------------------------------|
D-|--------------------------:-----------------------------------|
A-|--------------------------:-----------------------------------|
E-|--------------------------:-----------------------------------|





E-|--7-----5\3--------------5--7\-:--5--------------5--------5----|
B-|----------------5--6--7--------:--------5--6--7-----7----------|
G-|-------------------------------:-------------------------------|
D-|-------------------------------:-------------------------------|
A-|-------------------------------:-------------------------------|
E-|-------------------------------:-------------------------------|





E-|--7--5--------------5--------5----|--7----10----8h9---5h7----5\-:
B-|-----------5--6--7-----7----------|-----------------------------:
G-|----------------------------------|-----------------------------:
D-|----------------------------------|-----------------------------:
A-|----------------------------------|-----------------------------:
E-|----------------------------------|-----------------------------:





E-|--3--12/14--12\9-----------5--7---:-----7/9--7-------:
B-|------------------5--6--7---------:-------------10---:
G-|----------------------------------:------------------:
D-|----------------------------------:------------------:
A-|----------------------------------:------------------:
E-|----------------------------------:------------------:





E-|------------7------------------5--------5---:
B-|--7--10--------10-----5--6--7-----7---------:
G-|--------------------------------------------:
D-|--------------------------------------------:
A-|--------------------------------------------:
E-|--------------------------------------------:





E-|-----7-----10-----8h9-----5h7-----5\-:--3--10--12------:
B-|-------------------------------------:-----------------:
G-|-------------------------------------:-----------------:
D-|-------------------------------------:-----------------:
A-|-------------------------------------:-----------------:
E-|-------------------------------------:-----------------:




E-|--12--10-----10--10-----10-----10--8h10p8p7--8--8------|
B-|-------------------------------------------------------|
G-|-------------------------------------------------------|
D-|-------------------------------------------------------|
A-|-------------------------------------------------------|
E-|-------------------------------------------------------|





E-|-8--8--7h8p7---------------------------:------------5/7--3/5----:
B-|--------------10--8--7-----------------:--------8-------------8\:
G-|------------------------9--7/9--7/9--7~:-7h8h9------------------:
D-|---------------------------------------:------------------------:
A-|---------------------------------------:------------------------:
E-|---------------------------------------:------------------------:





E-|-----10--8--7---------10---|--12--15--13-----13--12------|
B-|--5------------10----------|-----------------------------|
G-|---------------------------|-----------------------------|
D-|---------------------------|-----------------------------|
A-|---------------------------|-----------------------------|
E-|---------------------------|-----------------------------|





E-|--11/12---------------------------------------:
B-|---------15-----13/15--13-----13--------------:
G-|----------------------------------12/14--12---:
D-|----------------------------------------------:
A-|----------------------------------------------:
E-|----------------------------------------------:





E-|------------------------------:-12h13h15--17--17--17/19--19/21:--:
B-|---------------------13h14h15-:-------------------------------:--:
G-|-----------12h13h14-----------:-------------------------------:--:
D-|-12h13h14---------------------:-------------------------------:--:
A-|------------------------------:-------------------------------:--:
E-|------------------------------:-------------------------------:--:



     8 measures sax

E-|---------:------:--------------------:--------------------------|
B-|---------:------:--7--6/7------------:--------------------------|
G-|---------:------:--7----------7------:---------7---7--7---------|
D-|---------:------:--7-------------9---:--7\5--------------9--7---|
A-|---------:------:--9-----------------:--------------------------|
E-|---------:------:--7-----------------:--------------------------|





E-|------------------|---|----------------:------------------------|
B-|--------6/7-------|---|--6/7-----------:------------------------|
G-|----7--------7/9--|---|--------7-------:-7--7--7-----------7--6-|
D-|-9----------------|---|-----------9--7-:----------9--7--9-------|
A-|------------------|---|----------------:------------------------|
E-|------------------|---|----------------:------------------------|





E-|-------------------:---------------|-12/14----------------------:
B-|-------------------:---------------|--------15\12--12------15---:
G-|-------------------:---------------|-------------------14-------:
D-|--7h9p7------------:---------------|----------------------------:
A-|---------10--9h10--:--9--7------7--|----------------------------:
E-|-------------------:--------10-----|----------------------------:





E-|---------------------12/14--10/:12:-10/12--10--8h10p8--7--8--7---|
B-|15--15--12----12--15-----------:--:----------------------------8h|
G-|-----------14------------------:--:------------------------------|
D-|-------------------------------:--:------------------------------|
A-|-------------------------------:--:------------------------------|
E-|-------------------------------:--:------------------------------|





E-|-------------------------------|---------10/12--10--9h10p9\7----:
B-|--10--8--------------------10--|-----10-----------------------5-:
G-|-------------------12--12------|-12-----------------------------:
D-|---------10h11h12--------------|--------------------------------:
A-|-------------------------------|--------------------------------:
E-|-------------------------------|--------------------------------:



                    s  a  x
E-|--------5--7--------------5------:
B-|--6--7-----------5--6--7-----7---:
G-|---------------------------------:
D-|---------------------------------:
A-|---------------------------------:
E-|---------------------------------:



                 guitar

E-|--5---7--5---------------5------:--5--7--10---8h9-----5h7---:
B-|-------------5---6---7------7---:---------------------------:
G-|--------------------------------:---------------------------:
D-|--------------------------------:---------------------------:
A-|--------------------------------:---------------------------:
E-|--------------------------------:---------------------------:



                                      s  a  x

E-|--5\3-----------------5--7---:--------------5--------5-----7---:
B-|-------------5--6--7---------:-----5--6--7-----7---------------:
G-|-----------------------------:---------------------------------:
D-|-----------------------------:---------------------------------:
A-|-----------------------------:---------------------------------:
E-|-----------------------------:---------------------------------:



            guitar
E-|--5----------------5---------5-----7------:
B-|--------5---6---7------7------------------:
G-|------------------------------------------:
D-|------------------------------------------:
A-|------------------------------------------:
E-|------------------------------------------:





E-|--10-----8h9-----5h7-----5--12/-:--14--12\9-----------5--7\-|
B-|--------------------------------:------------5--6--7--------|
G-|--------------------------------:---------------------------|
D-|--------------------------------:---------------------------|
A-|--------------------------------:---------------------------|
E-|--------------------------------:---------------------------|





E-|--5--------------5--------5-----7---|
B-|--------5--6--7-----7---------------|
G-|------------------------------------|
D-|------------------------------------|
A-|------------------------------------|
E-|------------------------------------|





E-|--5--------------5--------5-----7---|--10---8h9-----5h7---5\3---|
B-|--------5--6--7-----7---------------|---------------------------|
G-|------------------------------------|---------------------------|
D-|------------------------------------|---------------------------|
A-|------------------------------------|---------------------------|
E-|------------------------------------|---------------------------|





E-|--------------5--7------:--7/9--7----------------7----------:
B-|-----5--6--7------------:----------10--7--10--------10------:
G-|------------------------:-----------------------------------:
D-|------------------------:-----------------------------------:
A-|------------------------:-----------------------------------:
E-|------------------------:-----------------------------------:





E-|-----------5--------5-----7-----10-----8h9---:
B-|--5--6--7-----7------------------------------:
G-|---------------------------------------------:
D-|---------------------------------------------:
A-|---------------------------------------------:
E-|---------------------------------------------:





E-|--5h7--5\3--12--9----:-----9----12--9--------9----12--9--------9-|
B-|---------------------:-10----------------10----------------10----|
G-|-------------------9-:-------9--------9--------9--------9--------|
D-|---------------------:-------------------------------------------|
A-|---------------------:-------------------------------------------|
E-|---------------------:-------------------------------------------|





E-|-----12--9---------9-----12--9---------9-----10--9------|
B-|---------------10------------------10-------------------|
G-|--9---------9---------9---------9---------9---------9---|
D-|--------------------------------------------------------|
A-|--------------------------------------------------------|
E-|--------------------------------------------------------|





E-|------9-----10--9---------9-----10--9---------9-----12/-|
B-|--10------------------10------------------10------------|
G-|---------9---------9---------9---------9---------9------|
D-|--------------------------------------------------------|
A-|--------------------------------------------------------|
E-|--------------------------------------------------------|





E-|--14--12--10h12p10--9--10--12--9------:
B-|--------------------------------------:
G-|----------------------------------9---:
D-|--------------------------------------:
A-|--------------------------------------:
E-|--------------------------------------:





E-|------9-----12--9---------9-----12--9---------9---|
B-|--12------------------10------------------10------|
G-|---------9---------9---------9---------9----------|
D-|--------------------------------------------------|
A-|--------------------------------------------------|
E-|--------------------------------------------------|





E-|-----12--9---------9-----10--9---------9-----10--9---|
B-|---------------10------------------10----------------|
G-|--9---------9---------9---------9---------9----------|
D-|-----------------------------------------------------|
A-|-----------------------------------------------------|
E-|-----------------------------------------------------|



         A chord diagramFF  A chord diagramA augmentedA  A chord diagramD MajorD  A chord diagramE MajorE

E----------9-----12--9-----12--9-----12--9-----12--9-------|
B-|-----10-------------------------------------------------|
G-|--9---------9---------9---------9---------9---------9---|
D-|--------------------------------------------------------|
A-|--------------------------------------------------------|
E-|--------------------------------------------------------|





E-|--14--12--10--9-----------------------------------------------|
B-|-----------------12--10--9------------------------------------|
G-|----------------------------11--9-----------------------------|
D-|-----------------------------------12--11--9------------------|
A-|----------------------------------------------12--11--9-------|
E-|---------------------------------------------------------12---|





E-|------------------5--7\5--:-----------5-------5---7--5---------:
B-|---------5--6--7----------:--5--6--7-----7--------------5--6---:
G-|--------------------------:------------------------------------:
D-|--------------------------:------------------------------------:
A-|--12\10-------------------:------------------------------------:
E-|--------------------------:------------------------------------:





E-|-----5--------5-----7-----10-----8h9------:--5h7-----5\3------:
B-|--7-----7---------------------------------:-------------------:
G-|------------------------------------------:-------------------:
D-|------------------------------------------:-------------------:
A-|------------------------------------------:-------------------:
E-|------------------------------------------:-------------------:





__________________________________________________

Almost there ...

Sign in to get your own page with links to favourite songs and more. You are just one click away...

Login with Facebook Login with Google