Log in

One click and you are in

Login with Facebook Login with Google

Why sign up and log in

Guitar Tabs Explorer
Steve Oliver tabs for Oh yeah

Guitar tabs

This is a high energy, infectious song. Enjoy!


Tablature Explanation:
p=pull-off
h=hammer-on
/=slide up
\=slide down
~=vibrato

Note: Many of the slides down (especially the ones
that are more than 2
frets) are just meant to slide down toward the lower

note, and fade,
before actually reaching that note. If you know the
song you'll know
what I mean.

     strum                   strum

E-|--0===|===-|----|----|--0=======|===-|---|---|----------------------:
B-|--0===|===-|----|----|--0=======|===-|---|---|------7--8---7--------:
G-|--0===|===-|----|----|--0=======|===-|---|---|--9-------------9--7\-:
D-|--2===|===-|----|----|--2=======|===-|---|---|----------------------:
A-|--2===|===-|----|----|--2=======|==--|---|---|----------------------:
E-|--0===|===-|----|----|--0=======|===-|---|---|----------------------:





E-|-----7-----:--7-------------------|---------8/10-|-8h10p8--7--------:
B-|--------10-:-----10------7--8---7-|--------------|------------8--8/-:
G-|--5--------:---------9------------|-9--7\5-------|------------------:
D-|-----------:----------------------|--------------|------------------:
A-|-----------:----------------------|--------------|------------------:
E-|-----------:----------------------|--------------|------------------:




E-|--------12--14--15-----14---:--12-------------7--:---------7-------:
B-|--10\5----------------------:------15==-=\12-----:--10--------10---:
G-|----------------------------:--------------------:-----------------:
D-|----------------------------:--------------------:-----------------:
A-|----------------------------:--------------------:-----------------:
E-|----------------------------:--------------------:-----------------:





E-|-12--14--15--14--12-:----------------:-----------------:------------:
B-|--------------------:-15--12--13--15-:-13h15p13--12----:------------:
G-|--------------------:----------------:--------------12-:--12h14=\12-:
D-|--------------------:----------------:-----------------:------------:
A-|--------------------:----------------:-----------------:------------:
E-|--------------------:----------------:-----------------:------------:





E-|--7---7------------:--5--5h7-------:----:--7----:--7--7-----------:
B-|---------8-----8---:----------10---:----:--8----:---------8-----8-:
G-|------------7------:---------------:----:--9----:------------7----:
D-|-------------------:---------------:----:--9----:-----------------:
A-|-------------------:---------------:----:-------:-----------------:
E-|-------------------:---------------:----:-------:-----------------:





E-|--5--5h7------:--------------------:-----7--|--7-----------10--7h8p-|
B-|----------10--:--6h7--8--10--8h10p-:--8-----|-----8-----8-----------|
G-|--------------:--------------------:--------|--------7--------------|
D-|--------------:--------------------:--------|-----------------------|
A-|--------------:--------------------:--------|-----------------------|
E-|--------------:--------------------:--------|-----------------------|





E-|--7-----------------:-------------------------:--------6h7-----:--:
B-|-----10--6h7--------:----------8--------------:-----8-------10-:--:
G-|--------------7-----:--7h9--------9-----7h9---:--7-------------:--:
D-|--------------------:-------------------------:----------------:--:
A-|--------------------:-------------------------:----------------:--:
E-|--------------------:-------------------------:----------------:--:





E-|--------------:-------------:-----12--14--15--14--12-:---------7----:
B-|--6h7--8--10--:--8h10p8--7/-:-12---------------------:--15\12-----10:
G-|--------------:-------------:------------------------:--------------:
D-|--------------:-------------:------------------------:--------------:
A-|--------------:-------------:------------------------:--------------:
E-|--------------:-------------:------------------------:--------------:





E-|--7---------12---:--14--15---14--12-------:-----------------------:
B-|-----10----------:-------------------15---:--12--13--15--13h15p13-:
G-|-----------------:------------------------:-----------------------:
D-|-----------------:------------------------:-----------------------:
A-|-----------------:------------------------:-----------------------:
E-|-----------------:------------------------:-----------------------:





E-|----------------:-----12---14--15--:--14--12-----:-----7------7----:
B-|--12------------:------------------:----------15\:-12-----10-----10:
G-|------12--12h14-:\12---------------:-------------:-----------------:
D-|----------------:------------------:-------------:-----------------:
A-|----------------:------------------:-------------:-----------------:
E-|----------------:------------------:-------------:-----------------:





E-|---12--14--15---14---:--12---------------:-------------------------:
B-|---------------------:------15--12--13---:--15--13h15p13--12-------:
G-|---------------------:-------------------:--------------------12---:
D-|---------------------:-------------------:-------------------------:
A-|---------------------:-------------------:-------------------------:
E-|---------------------:-------------------:-------------------------:





E-|-------------:---7---7------|--------5--5h7-------:------:--7-----:
B-|-------------:----------8---|-----8----------10---:------:--8-----:
G-|--12h14\12---:--------------|--7------------------:------:--9-----:
D-|-------------:--------------|---------------------:------:--9-----:
A-|-------------:--------------|---------------------:------:--------:
E-|-------------:--------------|---------------------:------:--------:





E-|--7--7--------:-----5--5h7-------:---------------:----------7-:
B-|--------8-----:--8----------10---:--6h7--8--10---:--8h10p8----:
G-|-----------7--:------------------:---------------:------------:
D-|--------------:------------------:---------------:------------:
A-|--------------:------------------:---------------:------------:
E-|--------------:------------------:---------------:------------:





E-|-7-----------10-|-7h8p7----------|--------------|------------6h7----:
B-|----8-----8-----|--------10--6h7-|---------8----|---------8-------10:
G-|-------7--------|----------------|-7--7h9-----9-|-7h9--7------------:
D-|----------------|----------------|--------------|-------------------:
A-|----------------|----------------|--------------|-------------------:
E-|----------------|----------------|--------------|-------------------:





E-|--:-------:----------------------:-----------12-:--14--15--14--12---:
B=|--:-10/12\:-9--6h7--8--10--8h10p-:--8--7/12-----:-----------------15:
G-|--:-------:----------------------:--------------:-------------------:
D-|--:-------:----------------------:--------------:-------------------:
A-|--:-------:----------------------:--------------:-------------------:
E-|--:-------:----------------------:--------------:-------------------:





E-|-----7----:-7-----12--14--15-:-14--12----:--------------------------:
B=|\12----10-:---10-------------:--------15-:-12--13--15--13h15p13--12-:
G-|----------:------------------:-----------:--------------------------:
D-|----------:------------------:-----------:--------------------------:
A-|----------:------------------:-----------:--------------------------:
E-|----------:------------------:-----------:--------------------------:





E-|-----------:-----12--14--15-----14--12------|------------7-----:
B-|-----------:----------------------------15/-|--17p15\12-----10-:
G-|--12--12h14:\12-----------------------------|------------------:
D-|-----------:--------------------------------|------------------:
A-|-----------:--------------------------------|------------------:
E-|-----------:--------------------------------|------------------:





E-|-7-----12-|-14--15--14--12----:----------------------:--------------:
B-|---10-----|----------------15-:-12--13--15--13h15p13-:-12-----------:
G-|----------|-------------------:----------------------:-----12--12h14:
D-|----------|-------------------:----------------------:--------------:
A-|----------|-------------------:----------------------:--------------:
E-|----------|-------------------:----------------------:--------------:





E-|--------------:------------------|----------------|----------------:
B-|--------------:--8--8------------|--------8-------|--8--10/12--10--:
G=|\12-----7h9---:--------9--7--9---|--7h9-----9-----|----------------:
D-|--------------:------------------|----------------|----------------:
A-|--------------:------------------|----------------|----------------:
E-|--------------:------------------|----------------|----------------:





E-|--10/12--10--8--|--7--8-------------------------:-------------------:
B-|----------------|--------10/12--8---10/12\10--8/:-10---8\5--------8-:
G-|----------------|-------------------------------:-----------7h-9----:
D-|----------------|-------------------------------:-------------------:
A-|----------------|-------------------------------:-------------------:
E-|----------------|-------------------------------:-------------------:





E-|-----------------:-------------------|-----------------------------:
B-|--8--------------:---------8-----8---|--10/12--10\7----------8h10p-:
G-|-----9--7--9-----:---7--9------------|------------------7h9--------:
D-|-----------------:-------------------|-----------------------------:
A-|-----------------:-------------------|-----------------------------:
E-|-----------------:-------------------|-----------------------------:





E-|----------------10-:--:--:--:--1/12--12\:9--12--12--12--12--10--10~-:
B-|--8----------8-----:--:--:--:--1/12--12\:9--------------------------:
G-|-----9--7h9--------:--:--:--:--1/12--12\:9--------------------------:
D-|-------------------:--:--:--:-----------:---------------------------:
A-|-------------------:--:--:--:-----------:---------------------------:
E-|-------------------:--:--:--:-----------:---------------------------:





E-|-10--10~8--7--8p7----:-----------12-:-12--14--12------------------12:
B-|------------------10p:8-------8--12-:-12---------15--15--12h13h15---:
G-|---------------------:---7h9--------:-------------------------------:
D-|---------------------:--------------:-------------------------------:
A-|---------------------:--------------:-------------------------------:
E-|---------------------:--------------:-------------------------------:





E-|-----------------------------------------------:12--12--12--12------:
B-|-15p13p12---------13--13p12h13p12--------------:12--12---------15-15:
G-|----------14--12------------------14p12h14--12-:--------------------:
D-|-----------------------------------------------:--------------------:
A-|-----------------------------------------------:--------------------:
E-|-----------------------------------------------:--------------------:





E-|-------------------------------------------|-------12--14--12-------:
B-|-15--15--13--12--13p12---------------------|-------12---------15--15:
G-|-----------------------14--12--14h16p14--12|-14---------------------:
D-|-------------------------------------------|----14------------------:
A-|-------------------------------------------|------------------------:
E-|-------------------------------------------|------------------------:





E-|----------12-------------------------|------------------------------:
B-|-12h13h15----15p13p12--------------13|-12h13p12--10h12p10-----------:
G-|----------------------14--12h13h14---|---------------------12h14--12:
D-|-------------------------------------|------------------------------:
A-|-------------------------------------|------------------------------:
E-|-------------------------------------|------------------------------:





E-|----7--7-----------:--5--5h7-----:--:--7-----:--7-----7-----------5-:
B-|----------8-----8--:----------10-:--:--8-----:-----------8-----8----:
G=|\9-----------7-----:-------------:--:--9-----:--------------7-------:
D-|-------------------:-------------:--:--9-----:----------------------:
A-|-------------------:-------------:--:--------:----------------------:
E-|-------------------:-------------:--:--------:----------------------:





E-|--5h7-------|-----------------:--7---7-----:--------10---7h8p7-----:
B-|-------10---|--7h8--7--8p7----:---------8--:-----8--------------10-:
G-|------------|---------------9-:------------:--7--------------------:
D-|------------|-----------------:------------:-----------------------:
A-|------------|-----------------:------------:-----------------------:
E-|------------|-----------------:------------:-----------------------:




strum
E-|---------------:----------------------:--6h7-----:-0===:
B-|--6h7----------:---8--------------8---:-------10-:-0===:
G-|-------7--7h9--:------9---7h9--7------:----------:-0===:
D-|---------------:----------------------:----------:-2===:
A-|---------------:----------------------:----------:-2===:
E-|---------------:----------------------:----------:-0===:



    strum           strum     strum

E=|--2==---:--:--:--0===:===--2==-:---:-1/-|--12--13--15--16--15--13--:
B=|--3==---:--:--:--0===:===--3==-:---:-1/-|--12----------------------:
G=|--2==---:--:--:--0===:===--2==-:---:-1/-|--12----------------------:
D=|--0==---:--:--:--2===:===--0==-:---:----|--------------------------:
A=|--0==---:--:--:--2===:===--0==-:---:----|--------------------------:
E=|--0==---:--:--:--0===:===--0==-:---:----|--------------------------:





E-|--------8-|------8------:--13--15--16--15--13-----:-----------------|
B-|-16\13----|--11-----11--:----------------------16-:--13--14--16--14h|
G-|----------|-------------:-------------------------:-----------------|
D-|----------|-------------:-------------------------:-----------------|
A-|----------|-------------:-------------------------:-----------------|
E-|----------|-------------:-------------------------:-----------------|





E-|--------------------|------------13--15--16--15--13---:---------8---:
B-|-16p14--13----------|---------------------------------:--16\13------:
G-|------------13--15h-|--17p15\13-----------------------:-------------:
D-|--------------------|---------------------------------:-------------:
A-|--------------------|---------------------------------:-------------:
E-|--------------------|---------------------------------:-------------:





E-|-----8-----:-13--15--16--15--13-|----------------|------------------|
B-|-11-----11-:--------------------|-16--13--14--16-|-14h16p14--13-----|
G-|-----------:--------------------|----------------|---------------13-|
D-|-----------:--------------------|----------------|------------------|
A-|-----------:--------------------|----------------|------------------|
E-|-----------:--------------------|----------------|------------------|





E-|------------|--16--16--16---15---13------:----:--13h15--13------13\-:
B-|------------|------------------------16--:----:-------------16------:
G-|--13h15\13--|----------------------------:----:---------------------:
D-|------------|----------------------------:----:---------------------:
A-|------------|----------------------------:----:---------------------:
E-|------------|----------------------------:----:---------------------:





E-|-9--16--16--16--15-|-13------------------------:--------------------:
B-|-------------------|----16--16--16--16--16--14p:13h14--14--13h14--13:
G-|-------------------|---------------------------:--------------------:
D-|-------------------|---------------------------:--------------------:
A-|-------------------|---------------------------:--------------------:
E-|-------------------|---------------------------:--------------------:





E-|------------16--16/-:--18--16-----15-----13----------:---13/15--13-|
B-|--------------------:------------------------16------:-------------|
G-|--15/17-------------:--------------------------------:-------------|
D-|--------------------:--------------------------------:-------------|
A-|--------------------:--------------------------------:-------------|
E-|--------------------:--------------------------------:-------------|





E-|-------13---13/15--13--------|--13---13---15p13--------------------:
B-|--16---------------------16--|---------------------16--16--14--13h-:
G-|-----------------------------|-------------------------------------:
D-|-----------------------------|-------------------------------------:
A-|-----------------------------|-------------------------------------:
E-|-----------------------------|-------------------------------------:





E-|-----------------------------------:----------------------:---------:
B-|-14p13h----------------------------:----------------------:---------:
G-|-------15--13--15/17\15--13h15--13\:-9--13b------------15-:--13--13b:
D-|-----------------------------------:-------15--13--15-----:---------:
A-|-----------------------------------:----------------------:---------:
E-|-----------------------------------:----------------------:---------:





E-|---------------------:---------------------:------------------------:
B-|---------------------:---------------------:-------------------13-14:
G-|---------------15--15:13~------13----------:12--15--13--13--15------:
D-|15--13--15--13-------:---13h15----15--13h15:------------------------:
A-|---------------------:---------------------:------------------------:
E-|---------------------:---------------------:------------------------:





E-|-------------------------13--14--16--14--12---:-------------------13:
B-|-13----------13--14--16---------------------16:-14--13--------------:
G-|-----15--13-----------------------------------:---------15--13\12---:
D-|----------------------------------------------:---------------------:
A-|----------------------------------------------:---------------------:
E-|----------------------------------------------:---------------------:





E-|--15--16--15-----13---------:------:------:--13--15--16--15--13---:
B-|------------------------16\-:--12--:------:-----------------------:
G-|----------------------------:------:------:-----------------------:
D-|----------------------------:------:------:-----------------------:
A-|----------------------------:------:------:-----------------------:
E-|----------------------------:------:------:-----------------------:





E-|---------------13--16-:--15--13-------------------------:----------1:
B-|-16--13h14h16---------:----------16--14--13-------------:----------1:
G-|----------------------:----------------------15--13--12-:----------1:
D-|----------------------:---------------------------------:--15--13--3:
A-|----------------------:---------------------------------:----------3:
E-|----------------------:---------------------------------:----------1:





__________________________________________________

Almost there ...

Sign in to get your own page with links to favourite songs and more. You are just one click away...

Login with Facebook Login with Google