Log in

One click and you are in

Login with Facebook Login with Google

Why sign up and log in

Guitar Tabs Explorer
Steve Oliver tabs for Magic world

Guitar tabs

Tablature Explanation:
p=pull-off
h=hammer-on
/=slide up
\=slide down
~=vibrato

Note: Many of the slides down (especially the ones
that are more than 2 frets) are just meant to slide
down toward the lower note, and fade, before actually
reaching that note.

E-|--5h7p5--:----:----:----:--4h5p4---:----:---------7------------:
B-|---------:----:----:----:----------:----:--7--10------10--10---:
G-|---------:----:----:----:----------:----:----------------------:
D-|---------:----:----:----:----------:----:----------------------:
A-|---------:----:----:----:----------:----:----------------------:
E-|---------:----:----:----:----------:----:----------------------:





E-|-----------7---------------:---------10--9--9---7--|--9\5---7--:
B-|----7--10--------10---10---:--7--10----------------|-----------:
G-|---------------------------:-----------------------|-----------:
D-|---------------------------:-----------------------|-----------:
A-|---------------------------:-----------------------|-----------:
E-|---------------------------:-----------------------|-----------:



E-|-----------------7-|-----------10--9--9-|--7--9h10p9--10p9--7--:
B-|--10--10--7--10----|--10--10------------|----------------------:
G-|-------------------|--------------------|----------------------:
D-|-------------------|--------------------|----------------------:
A-|-------------------|--------------------|----------------------:
E-|-------------------|--------------------|----------------------:




  harmonic
E-|---------10-:-9--7h9--7---------:------------------:---12------:
B-|-10--10-----:------------10--10-:--9h10p9--7-------:-----------:
G-|------------:-------------------:-------------9/11\:9-----7--9-:
D-|------------:-------------------:------------------:-----------:
A-|------------:-------------------:------------------:-----------:
E-|------------:-------------------:------------------:-----------:





E-|------------:------:---------------:----------:----------------:
B-|-7----------:------:---7-----------:--------7-:-6/7------------:
G-|---9p7--7/9-:-9--7-:-9---9--7--7/9-:-9--7-9---:-----9--7--6--7-:
D-|------------:------:---------------:----------:----------------:
A-|------------:------:---------------:----------:----------------:
E-|------------:------:---------------:----------:----------------:





E-|----------------:---------------:------------------:----------:
B-|----------------:---------------:--------------7---:----------:
G-|--7----6--------:--7--7--6/7\6--:--------7--9------:--9p7--9/-:
D-|----------9-----:---------------:--9---------------:----------:
A-|----------------:---------------:------------------:----------:
E-|----------------:---------------:------------------:----------:





E-|-----------:---------------------:-----------------:-----------:
B-|-----------:-----7--7--7--7h8p7h-:-----------------:-------3/7-:
G-|-11--9--7--:--9------------------:--9--7--6h7p6--4-:-4--7------:
D-|-----------:---------------------:-----------------:-----------:
A-|-----------:---------------------:-----------------:-----------:
E-|-----------:---------------------:-----------------:-----------:





E-|-----------:-----------:---------:--------------:------------7-:
B-|-7--5--3/5-:-----------:---------:--------------:-5h7--7--10---:
G-|-----------:-7--6--6h7-:-7--6--4-:---4--6--7--7-:--------------:
D-|-----------:-----------:---------:-4------------:--------------:
A-|-----------:-----------:---------:--------------:--------------:
E-|-----------:-----------:---------:--------------:--------------:





E-|-------------------7-|--------------------10--9--:--9--7--9\5--:
B-|--10--10----7--10----|--10-----10--7--10---------:-------------:
G-|---------------------|---------------------------:-------------:
D-|---------------------|---------------------------:-------------:
A-|---------------------|---------------------------:-------------:
E-|---------------------|---------------------------:-------------:





E-|-7-----------------:--7-----------------10-:--9--9--7--9\5--10-:
B-|----10--10--7--10--:-----10--10--7--10-----:-------------------:
G-|-------------------:-----------------------:-------------------:
D-|-------------------:-----------------------:-------------------:
A-|-------------------:-----------------------:-------------------:
E-|-------------------:-----------------------:-------------------:





E-|--9--7-------------7--:------10--9--7h9p7--:-------------7-----:
B-|--------10--10--7-----:--10----------------:--10--10--7-----10-:
G-|----------------------:--------------------:-------------------:
D-|----------------------:--------------------:-------------------:
A-|----------------------:--------------------:-------------------:
E-|----------------------:--------------------:-------------------:




E-|------------------------:--------------:------:
B-|--9--10--9--7--5h7--5---:--5-----------:--7---:
G-|------------------------:-----4h6--4---:------:
D-|------------------------:--------------:------:
A-|------------------------:--------------:------:
E-|------------------------:--------------:------:



E-|------7------------------------:--7-----------------------10---:
B-|--10--------10--10-----7--10---:--------10-----10--7--10-------:
G-|-------------------------------:-------------------------------:
D-|-------------------------------:-------------------------------:
A-|-------------------------------:-------------------------------:
E-|-------------------------------:-------------------------------:





E-|--9--9--10/12--12\-:--8----------:--7---------------------7--:
B-|-------------------:-----7--10---:-------10--10----7--10-----:
G-|-------------------:-------------:---------------------------:
D-|-------------------:-------------:---------------------------:
A-|-------------------:-------------:---------------------------:
E-|-------------------:-------------:---------------------------:





E-|-----------------------10---:--9--9-----7--9h10p9--10--9---:
B-|-----10-----10--7--10-------:------------------------------:
G-|----------------------------:------------------------------:
D-|----------------------------:------------------------------:
A-|----------------------------:------------------------------:
E-|----------------------------:------------------------------:




E-|--7-----------------7---:------10--9--7h9p7-----------:
B-|-----10--10--7--10------:--10----------------10--10---:
G-|------------------------:-----------------------------:
D-|------------------------:-----------------------------:
A-|------------------------:-----------------------------:
E-|------------------------:-----------------------------:





E-|---------7--------------:--------------------:---------:------:
B-|--7--10-----10--9--10---:--9--7--5h7---------:---------:------:
G-|------------------------:-------------9--9---:---------:------:
D-|------------------------:--------------------:--9h11---:--9---:
A-|------------------------:--------------------:---------:------:
E-|------------------------:--------------------:---------:------:





E-|------------------:-----------------:-------------:------:
B-|--------7---------:-----------------:--7--7h8p7---:------:
G-|--7--9-----9--7---:---7h9--9--7--9--:-------------:--9---:
D-|------------------:-----------------:-------------:------:
A-|------------------:-----------------:-------------:------:
E-|------------------:-----------------:-------------:------:





E-|----------------:--------------|------------------:
B-|----------------:--------6h7---|--7h8p7-----------:
G-|--7--6h7p6--4---:--4--7--------|---------9--7h9---:
D-|----------------:--------------|------------------:
A-|----------------:--------------|------------------:
E-|----------------:--------------|------------------:





E-|-------------:-----------:----------------|--------:-----------|
B-|-------------:-----------:----------------|--------:--------7--|
G-|--7--6--6h7--:--7--6-----:-------6--7--7--|--9--7--:--7--9-----|
D-|-------------:--------9--:----9-----------|--------:-----------|
A-|-------------:-----------:-9--------------|--------:-----------|
E-|-------------:-----------:----------------|--------:-----------|





E-|----------------:------------:-----------------:---------------:
B-|--7--7h8p7------:--------7---:--7/10--7\5--5---:---------------:
G-|------------9---:--7--9------:-----------------:--7--6h7p6-----:
D-|----------------:------------:-----------------:------------9--:
A-|----------------:------------:-----------------:---------------:
E-|----------------:------------:-----------------:---------------:





E-|----------------------------:------------:------------------:
B-|-----------------7h8p7------:------------:------------------:
G-|-----7-----7/11---------9---:--7--9--7---:--6--7--7--6------:
D-|--9-------------------------:------------:--------------9---:
A-|----------------------------:------------:------------------:
E-|----------------------------:------------:------------------:





E-|--------------------:--------------------:
B-|--------------------:------------7--10---:
G-|--------6--7--7--9/-:--11--11\7----------:
D-|-----9--------------:--------------------:
A-|--9-----------------:--------------------:
E-|--------------------:--------------------:





E-|--7------------------7--:-----------------10--|--9--9--7--9\5--|
B-|------10--10--7--10-----:--10--10--7--10------|----------------|
G-|------------------------:---------------------|----------------|
D-|------------------------:---------------------|----------------|
A-|------------------------:---------------------|----------------|
E-|------------------------:---------------------|----------------|





E-|--------7--------:--------7-----------:-----10--9--9--7--9h10p-|
B-|-7--10----10--10-:-7--10----10--10--7-:-10---------------------|
G-|-----------------:--------------------:------------------------|
D-|-----------------:--------------------:------------------------|
A-|-----------------:--------------------:------------------------|
E-|-----------------:--------------------:------------------------|





E-|--9--10--9--7------:-------------7-----|--10--9--7h9p7---------|
B-|---------------10--:--10--7--10-----10-|----------------10--10-|
G-|-------------------:-------------------|-----------------------|
D-|-------------------:-------------------|-----------------------|
A-|-------------------:-------------------|-----------------------|
E-|-------------------:-------------------|-----------------------|





E-|------------7------------------:---------------:-----------:
B-|-----7--10-----10-----9h10p9---:--7--5h7-------:-----------:
G-|-------------------------------:----------9----:-----------:
D-|-------------------------------:---------------:--9h11p9---:
A-|-------------------------------:---------------:-----------:
E-|-------------------------------:---------------:-----------:





E-|----------:--7-----------------------7---|
B-|--7--10---:--------10--10-----7--10------|
G-|----------:------------------------------|
D-|----------:------------------------------|
A-|----------:------------------------------|
E-|----------:------------------------------|





E-|-----------------10--9-:--9--10h12--12-:---------7------------|
B-|--10--10--7--10--------:---------------:--7--10-----10--10--7-|
G-|-----------------------:---------------:----------------------|
D-|-----------------------:---------------:----------------------|
A-|-----------------------:---------------:----------------------|
E-|-----------------------:---------------:----------------------|





E-|------7-----------------10h:-12--12--10--9h10p9-:-10--9--7-----:
B-|--10-----10--10--7--10-----:--------------------:-----------10-:
G-|---------------------------:--------------------:--------------:
D-|---------------------------:--------------------:--------------:
A-|---------------------------:--------------------:--------------:
E-|---------------------------:--------------------:--------------:





E-|----------------7------10---:--9--7h9p7--------------:
B-|--10-----7--10-----10-------:------------10--10--7---:
G-|----------------------------:------------------------:
D-|----------------------------:------------------------:
A-|----------------------------:------------------------:
E-|----------------------------:------------------------:





E-|------7-----------------:--------------:
B-|--10-----10--9--10--9---:--7--5h7------:
G-|------------------------:----------9---:
D-|------------------------:--------------:
A-|------------------------:--------------:
E-|------------------------:--------------:



                               [ harmonics
E-|------------:---:--:--:---:--12---:------12--12------12-------:
B-|------------:---:--:--:---:-------:--12----------12------12---:
G-|------------:---:--:--:---:-------:---------------------------:
D-|--9h11--9---:---:--:--:---:-------:---------------------------:
A-|------------:---:--:--:---:-------:---------------------------:
E-|------------:---:--:--:---:-------:---------------------------:



                   harmonics       ]

E-|--12------12------12------12------:------------------14---14--:
B-|------12------12------12------12--:------12--14--15-----------:
G-|----------------------------------:--14-----------------------:
D-|----------------------------------:---------------------------:
A-|----------------------------------:---------------------------:
E-|----------------------------------:---------------------------:





E-|--12------14--14--14p-:--12--12-----------------:
B-|------15--------------:----------15--14h15p14---:
G-|----------------------:-------------------------:
D-|----------------------:-------------------------:
A-|----------------------:-------------------------:
E-|----------------------:-------------------------:





E-|------------------12h-:--14-----14--12------14---:
B-|------12--14--15------:-----------------15-------:
G-|--14------------------:--------------------------:
D-|----------------------:--------------------------:
A-|----------------------:--------------------------:
E-|----------------------:--------------------------:





E-|--14/15\14--13h14---:--12----------------------------:
B-|--------------------:------15--14--15p14p12------12h-:
G-|--------------------:------------------------14------:
D-|--------------------:--------------------------------:
A-|--------------------:--------------------------------:
E-|--------------------:--------------------------------:





E-|------------------------------------:-------------7h9----------:
B-|--14--12----------------10----------:--10--------------12--10--:
G-|----------14-----9--11------11------:------11--9---------------:
D-|------------------------------------:--------------------------:
A-|------------------------------------:--------------------------:
E-|------------------------------------:--------------------------:





E-|-------------------:-------------------:-----------------------:
B-|--12--10--10--12---:--12h14--12--10--9-:--10--9-------------10-:
G-|-------------------:-------------------:---------11--9--11-----:
D-|-------------------:-------------------:-----------------------:
A-|-------------------:-------------------:-----------------------:
E-|-------------------:-------------------:-----------------------:





E-|--------------------------------------------------------9---:
B-|--9-------------10--9-------------9--10--12--9--10--12------:
G-|-----11--9--11---------11--9--11----------------------------:
D-|------------------------------------------------------------:
A-|------------------------------------------------------------:
E-|------------------------------------------------------------:





E-|--10--9------9--10--12--10--9-------------------------------:
B-|---------12--------------------12--10--9------10--9---------:
G-|------------------------------------------11---------11--9\-:
D-|------------------------------------------------------------:
A-|------------------------------------------------------------:
E-|------------------------------------------------------------:





E-|-----7--------------------|------7-----------------------10---:
B-|-----------10--10-----7---|--10--------10-----10--7--10-------:
G-|--7-----------------------|-----------------------------------:
D-|--------------------------|-----------------------------------:
A-|--------------------------|-----------------------------------:
E-|--------------------------|-----------------------------------:





E-|--9--9-----7--9\-:--5---------7--------------:
B-|-----------------:-----7--10--------10--10---:
G-|-----------------:---------------------------:
D-|-----------------:---------------------------:
A-|-----------------:---------------------------:
E-|-----------------:---------------------------:





E-|------------7--------------------:------10h12--12--10--9h10p-:
B-|-----7--10--------10-----10--7---:--10-----------------------:
G-|---------------------------------:---------------------------:
D-|---------------------------------:---------------------------:
A-|---------------------------------:---------------------------:
E-|---------------------------------:---------------------------:





E-|--9--10--9--7h9p7-----------:------------7------10--9--7h-|
B-|-------------------10--10---:-----7--10-----10------------|
G-|----------------------------:-----------------------------|
D-|----------------------------:-----------------------------|
A-|----------------------------:-----------------------------|
E-|----------------------------:-----------------------------|





E-|--9p7--------------------7-------:-----------------------:
B-|-------10--10-----7--10-----10---:--9/10\9--7--10h12--12-:
G-|---------------------------------:-----------------------:
D-|---------------------------------:-----------------------:
A-|---------------------------------:-----------------------:
E-|---------------------------------:-----------------------:





E-|---------------:-----14---:--14----------------------14---:
B=|--10--9h10p9---:----------:------15--12------12--15-------:
G-|---------------:----------:--------------14---------------:
D-|---------------:----------:-------------------------------:
A-|---------------:----------:-------------------------------:
E-|---------------:----------:-------------------------------:




E-|------14------------------12-------:
B=|--15------15--12--15--14------14---:
G-|-----------------------------------:
D-|-----------------------------------:
A-|-----------------------------------:
E-|-----------------------------------:





E-|-------------------------------------------:
B-|--15--14--12--14------12-------------------:
G-|------------------14------14--13--11--14---:
D-|-------------------------------------------:
A-|-------------------------------------------:
E-|-------------------------------------------:




E-|----------------------14------------14---:
B-|-----------------------------15----------:
G-|--13--11------11-------------------------:
D-|----------14------14---------------------:
A-|-----------------------------------------:
E-|-----------------------------------------:





E-|-------------------14----12-:----------------12------------:
B-|-15--12----12--15-----15----:-15--12--15--14----14--15--14-:
G-|--------14------------------:------------------------------:
D-|----------------------------:------------------------------:
A-|----------------------------:------------------------------:
E-|----------------------------:------------------------------:





E-|-------------------------------------------:
B-|--12--14------12---------------------------:
G-|----------14------14--13--11--13--11-------:
D-|--------------------------------------14---:
A-|-------------------------------------------:
E-|-------------------------------------------:





E-|----------14-----14--14/16--16/17--17\-:
B-|---------------------------------------:
G-|--11-----------------------------------:
D-|------14-------------------------------:
A-|---------------------------------------:
E-----------------------------------------:





E-|--15--16h17--17--19--:--17--17h19--19-:-----19-----19\12--:
B-|---------------------:----------------:-------------------:
G-|---------------------:----------------:-16-----16---------:
D-|---------------------:----------------:-------------------:
A-|---------------------:----------------:-------------------:
E-|---------------------:----------------:-------------------:






E-|------17----------16----------14---------12-------------12\:
B-|-----------------------------------------------------------:
G-|--14------14--13------13--11------11--9------9--10--11-----:
D-|-----------------------------------------------------------:
A-|-----------------------------------------------------------:
E-|-----------------------------------------------------------:




         FADE

E-|-10-----------7----------:----------------7----------------:
B-|-----7--10----------10---:--10-----7--10--------10-----10--:
G-|-------------------------:---------------------------------:
D-|-------------------------:---------------------------------:
A-|-------------------------:---------------------------------:
E-|-------------------------:---------------------------------:





E-|----------------7-----------------:---------10---9---9--7--:
B-|--10-----7--10--------10-----10---:--7--10-----------------:
G-|----------------------------------:------------------------:
D-|----------------------------------:------------------------:
A-|----------------------------------:------------------------:
E-|----------------------------------:------------------------:





E-|--9\5---------7---:-----------------------7----------:
B-|-------7--10------:-----10--10-----7--10--------10---:
G-|------------------:----------------------------------:
D-|------------------:----------------------------------:
A-|------------------:----------------------------------:
E-|------------------:----------------------------------:





E-|----------------10h12--12---:--10--9h10p9\5-----10---:
B-|-----10--7--10--------------:------------------------:
G-|----------------------------:------------------------:
D-|----------------------------:------------------------:
A-|----------------------------:------------------------:
E-|----------------------------:------------------------:





E-|--9--7-----------------:------7------10--9---:
B-|--------10--10-----7---:--10-----10----------:
G-|-----------------------:---------------------:
D-|-----------------------:---------------------:
A-|-----------------------:---------------------:
E-|-----------------------:---------------------:




E-|--7h9p7-----------------7---:---------------------:-------
B-|---------10--10--7--10------:--10--9h10p9--7--10h-:--12---
G-|----------------------------:---------------------:-------
D-|----------------------------:---------------------:-------
A-|----------------------------:---------------------:-------
E-|----------------------------:---------------------:-------


__________________________________________________

Almost there ...

Sign in to get your own page with links to favourite songs and more. You are just one click away...

Login with Facebook Login with Google