Log in

One click and you are in

Login with Facebook Login with Google

Why sign up and log in

Guitar Tabs Explorer
Steve Oliver tabs for High noon

Guitar tabs with lyrics

This is not perfect, but it's close enough for you to
tweak to suit your ears. I had seen
part of it tabbed elsewhere, but it was tabbed at a
different position on the fingerboard,
and it wasn't close to being complete.

It's a great song. Enjoy!
Tablature Explanation:
p=pull-off
h=hammer-on
/=slide up
\=slide down

Note: Most of the slides down are just meant to slide
down toward the lower note, and fade,
before actually reaching that note.



E-|--12h13p12------------:--8--8--7--7--7--8h10---:-------------:------:--12h13p12------:
B-|----------------------:------------------------:--10---------:------:----------------:
G-|----------------------:------------------------:-------------:------:----------------:
D-|----------------------:------------------------:-------------:------:----------------:
A-|----------------------:------------------------:-------------:------:----------------:
E-|----------------------:------------------------:-------------:------:----------------:





E-|------:-----5--8--7---|--5--8\-5--------5--8--7--5---:--5h7-----7-----5h7p5--------8-----8p7p-|
B-|------:--5------------|---------------5---------------:-----------------------8----------------|
G-|------:---------------|-------------------------------:----------------------------------------|
D-|------:---------------|-------------------------------:----------------------------------------|
A-|------:---------------|-------------------------------:----------------------------------------|
E-|------:---------------|-------------------------------:----------------------------------------|




E-|--5--8h10--8\5-----5--8--7h-|--8--8h10--10-----6h7--------5--8---:--7--5--8\3-----5--8--7h-:
B-|----------------5-----------|-----------------------8--5---------:-------------5-----------:
G-|----------------------------|------------------------------------:-------------------------:
D-|----------------------------|------------------------------------:-------------------------:
A-|----------------------------|------------------------------------:-------------------------:
E-|----------------------------|------------------------------------:-------------------------:





E-|--8p7p5h7--7-----5h7p5--------:-----------------------------------:-----------3h5--5-----5h6p5---------:
B-|------------------------8--8h-:--10\5--5-----------8-----4h5------:-----------------------------8------:
G-|------------------------------:--------------5----------------7---:--5---------------------------------:
D-|------------------------------:-----------------------------------:-----7--5---------------------------:
A-|------------------------------:-----------------------------------:------------------------------------:
E-|------------------------------:-----------------------------------:------------------------------------:





E-|-----5--8--7--5--8------:-----5--8--7h8p7p5-----7---:--7-----5h7p5-----8-----8p7p5--8h-|
B-|--5---------------------:--5------------------------:---------------8------------------|
G-|------------------------:---------------------------:----------------------------------|
D-|------------------------:---------------------------:----------------------------------|
A-|------------------------:---------------------------:----------------------------------|
E-|------------------------:---------------------------:----------------------------------|





E-|--10--8\5-----5--8--7--8--8h-:--10--10--10h12--10h12p10--8h10p8---:--7--8---------|
B-|-----------5-----------------:------------------------------------:-----------5---|
G-|-----------------------------:------------------------------------:---------------|
D-|-----------------------------:------------------------------------:---------------|
A-|-----------------------------:------------------------------------:---------------|
E-|-----------------------------:------------------------------------:---------------|





E-|--5--8--7h8p7--5--7--7-----5h7p-|--5--------------------------------|-------------------3h5--5-----5h6p5---:
B-|--------------------------------|-----8--8h10\5--5-----------8------|--4h5---------------------------------:
G-|--------------------------------|----------------------5------------|-------7--5---------------------------:
D-|--------------------------------|-----------------------------------|-------------7--5---------------------:
A-|--------------------------------|-----------------------------------|--------------------------------------:
E-|--------------------------------|-----------------------------------|--------------------------------------:





E-|--------------------------|--------------------13--12--11h12--10--10p-:--8-------------------------------------|
B-|--8----------------8h10---|-----10-----11--13-------------------------:----------------------10h11p10--10------|
G-|--------9--10--12---------|-------------------------------------------:-----9-----10-----12--------------------|
D-|--------------------------|-------------------------------------------:----------------------------------------|
A-|--------------------------|-------------------------------------------:----------------------------------------|
E-|--------------------------|-------------------------------------------:----------------------------------------|





E-|----------13h15--13-----13--12--12--13p12p10-------|-----------------------------------------:
B-|--11--13--------------------------------------13---|--11--10----------10--10------10h11p10---:
G-|---------------------------------------------------|----------12--10----------12-------------:
D-|---------------------------------------------------|-----------------------------------------:
A-|---------------------------------------------------|-----------------------------------------:
E-|---------------------------------------------------|-----------------------------------------:





E-|--------------13--12-----11h12-----10-----9h10---:--------------------------------------------:
B-|--10--11--13-------------------------------------:--13--13--11--10--10h11--11--11h13p11--11---:
G-|-------------------------------------------------:--------------------------------------------:
D-|-------------------------------------------------:--------------------------------------------:
A-|-------------------------------------------------:--------------------------------------------:
E-|-------------------------------------------------:--------------------------------------------:





E-|----------------------------14h-|--15--14h15\12------5--8--7--5--8\-:--5--------5--8--7--5--5h7------|
B-|--11--11h13p11--10--------------|----------------5------------------:--------5-----------------------|
G-|--------------------12--12------|-----------------------------------:--------------------------------|
D-|--------------------------------|-----------------------------------:--------------------------------|
A-|--------------------------------|-----------------------------------:--------------------------------|
E-|--------------------------------|-----------------------------------:--------------------------------|





E-|--7-----5h7p5--------8-----8--7--5--8h10---:--8\5-----5--8--7--8--8h10--10------:
B-|---------------8---------------------------:-------5----------------------------:
G-|-------------------------------------------:------------------------------------:
D-|-------------------------------------------:------------------------------------:
A-|-------------------------------------------:------------------------------------:
E-|-------------------------------------------:------------------------------------:





E-|--10h12--10h12p10--8h10p8--7--8\-:--5--------5--8--7h8p7p5h7---|--7-----4h5--------------------------:
B-|---------------------------------:--------5--------------------|-------------8--8h10\5--5------------:
G-|---------------------------------:-----------------------------|------------------------------5------:
D-|---------------------------------:-----------------------------|-------------------------------------:
A-|---------------------------------:-----------------------------|-------------------------------------:
E-|---------------------------------:-----------------------------|-------------------------------------:





E-|-------------------------3h5--5------:--6p5-----10h12--11--12\8------:------:
B-|--8-----4h5--------------------------:-------8-----------------------:------:
G-|-------------7--5--------------------:-------------------------------:------:
D-|-------------------7--5--------------:-------------------------------:------:
A-|-------------------------------------:-------------------------------:------:
E-|-------------------------------------:-------------------------------:------:





E-|---8-----10---|--7------8---8h10---8------:--7---:--8--7--8---8---:---------:
B-|--10----------|--8-----10--10h12--10------:--8---:--8--8--8--10---:---------:
G-|--------------|---------------------------:------:------------9---:---------:
D-|--------------|---------------------------:------:-----------10---:---------:
A-|--------------|---------------------------:------:----------------:---------:
E-|--------------|---------------------------:------:----------------:---------:



                 mute      s  t  r  i  n  g s

E-|------:---------------|----------------------------:------------:-------------------------------------------:
B-|------:---------------|----------------------------:------------:--------------------------8-----8h10--10---:
G-|------:-----5--5------|--5--5--5--7--5--7h8p7--5---:--7---------:----------5--7h8p7--5--7-------------------:
D-|------:---------------|----------------------------:------------:--5--5h7-----------------------------------:
A-|------:---------------|----------------------------:------------:-------------------------------------------:
E-|------:---------------|----------------------------:------------:-------------------------------------------:





E-|--------------------7--8p7--8p7---:---------------------------------------------:
B-|--8p5-----7--8--10----------------:--10--8--10-----8h10p8-----6h8p6-----5h6p5---:
G-|----------------------------------:---------------------------------------------:
D-|----------------------------------:---------------------------------------------:
A-|----------------------------------:---------------------------------------------:
E-|----------------------------------:---------------------------------------------:




               y
E-|------------------8p7-----8--7-----10--8------:--8--7-----10--7-----8--10--8--7------7--8p7----------------|
B-|-----3h5p3-----3------------------------------:----------------------------------10----------10-----8------|
G-|------------5----------9--------9---------9---:--------9---------------------------------------------------|
D-|----------------------------------------------:------------------------------------------------------------|
A-|----------------------------------------------:------------------------------------------------------------|
E-|----------------------------------------------:------------------------------------------------------------|





E-|----------------------7--8/12--10--8--10--8--7--8--7---:--8--10--15--15--15h17--15-----5---:
B-|--8--10-----7--8--10-----------------------------------:----------------------------5------:
G-|-------------------------------------------------------:-----------------------------------:
D-|-------------------------------------------------------:-----------------------------------:
A-|-------------------------------------------------------:-----------------------------------:
E-|-------------------------------------------------------:-----------------------------------:





E-|--8--7--5--8------:-----5--8--7h8p7p5-----7---:--7-----5h7p5-----8-----8p7p5--8h10---:
B-|------------------:--5------------------------:---------------8----------------------:
G-|------------------:---------------------------:--------------------------------------:
D-|------------------:---------------------------:--------------------------------------:
A-|------------------:---------------------------:--------------------------------------:
E-|------------------:---------------------------:--------------------------------------:





E-|--8\5-----5--8--7--8--8h10---:--10--10h12--10h12p10--8h10p8--7---:--8--------5--8---:
B-|-------5---------------------:-----------------------------------:--------5---------:
G-|-----------------------------:-----------------------------------:------------------:
D-|-----------------------------:-----------------------------------:------------------:
A-|-----------------------------:-----------------------------------:------------------:
E-|-----------------------------:-----------------------------------:------------------:





E-|--7h8p7--5--7--7-----5h7p5------:----------------------------------:-----------------3h5--5-----5h6p5---|
B-|----------------------------8---:--8h10\5--5-----------8-----4h5---:------------------------------------|
G-|--------------------------------:----------------5-----------------:--7--5------------------------------|
D-|--------------------------------:----------------------------------:--------7--5--5---------------------|
A-|--------------------------------:----------------------------------:------------------------------------|
E-|--------------------------------:----------------------------------:------------------------------------|





E-|-----------------------------|-----------------13--12--11h12--10--10p-:--8-----------------------------------------|
B-|--8----------------8h10------|--10-----11--13-------------------------:----------------------10h11p10--10-----11---|
G-|--------9--10--12------------|----------------------------------------:-----9-----10-----12------------------------|
D-|-----------------------------|----------------------------------------:--------------------------------------------|
A-|-----------------------------|----------------------------------------:--------------------------------------------|
E-|-----------------------------|----------------------------------------:--------------------------------------------|





E-|------13h15--13-----13--12--12--13p12p10-----------|-------------------------------------:
B-|--13--------------------------------------13--11---|--10----------10--10------10h11p10---:
G-|---------------------------------------------------|------12--10----------12-------------:
D-|---------------------------------------------------|-------------------------------------:
A-|---------------------------------------------------|-------------------------------------:
E-|---------------------------------------------------|-------------------------------------:





E-|--------------13--12-----11h12-----10-----9h10---|--------------------------------------------|
B-|--10--11--13-------------------------------------|--13--13--11--10--10h11--11--11h13p11--11---|
G-|-------------------------------------------------|--------------------------------------------|
D-|-------------------------------------------------|--------------------------------------------|
A-|-------------------------------------------------|--------------------------------------------|
E-|-------------------------------------------------|--------------------------------------------|





E-|----------------------------14/15---:--14/15\12--8--7--5--8p-:--5--------5--8--7h8p-|
B-|--11--11h13p11--10------------------:------------------------:--------5-------------|
G-|--------------------12--12----------:------------------------:----------------------|
D-|------------------------------------:------------------------:----------------------|
A-|------------------------------------:------------------------:----------------------|
E-|------------------------------------:------------------------:----------------------|





E-|--7p5-----7--7-----5h7p5-----8-----8p-:--7p5--8h10--8\5-----5--8---:--7--5--10h12--12-----12h13p12--10p7--8--7--8p-:
B-|--------------------------8-----------:------------------5---------:-----------------------------------------------:
G-|--------------------------------------:----------------------------:-----------------------------------------------:
D-|--------------------------------------:----------------------------:-----------------------------------------------:
A-|--------------------------------------:----------------------------:-----------------------------------------------:
E-|--------------------------------------:----------------------------:-----------------------------------------------:





E-|--7-----5--8--7h8p7--5--7--7---|-----5h7p5--------------------------|-------------------------3h5--5------:
B-|-----5-------------------------|------------8--8h10\5--5------------|--8-----4h5--------------------------:
G-|-------------------------------|-----------------------------5------|-------------7--5--------------------:
D-|-------------------------------|------------------------------------|-------------------7--5--------------:
A-|-------------------------------|------------------------------------|-------------------------------------:
E-|-------------------------------|------------------------------------|-------------------------------------:





E-|--5h6p5-----10h12--10h12p8------:------:---8---8------|--7--7--7------8---8---8\5------:
B-|---------8----------------------:------:--10--10------|--8--8--8-----10--10--10\7------:
G-|--------------------------------:------:---9---9------|--------------------------------:
D-|--------------------------------:------:--------------|--------------------------------:
A-|--------------------------------:------:--------------|--------------------------------:
E-|--------------------------------:------:--------------|--------------------------------:




          m u t e
E-|------:--8h10--8-----7h8p7---:--------------:-----10--10------8---|---8---8-----7---8\5------:
B-|------:----------------------:--8-----------:-----12--12-----10---|--10--10-----8--10\7------:
G-|------:----------------------:-----7h9------:---------------------|--------------------------:
D-|------:----------------------:--------------:---------------------|--------------------------:
A-|------:----------------------:--------------:---------------------|--------------------------:
E-|------:----------------------:--------------:---------------------|--------------------------:





E-|-----6--9--8--6--9---:--------6--9---:--8h9p8p6-----8--8-----6h8p6---|-----9-----9p8p6--9h11--9\6---:
B-|--6------------------:-----6---------:-------------------------------|--9---------------------------:
G-|---------------------:---------------:-------------------------------|------------------------------:
D-|---------------------:---------------:-------------------------------|------------------------------:
A-|---------------------:---------------:-------------------------------|------------------------------:
E-|---------------------:---------------:-------------------------------|------------------------------:





E-|-----6--9--8--9--9h11--11--11h13---:--11h13p11--9h11p9--8--9------:-----6--9--8h9p8--6--8---:
B-|--6--------------------------------:------------------------------:--6----------------------:
G-|-----------------------------------:------------------------------:-------------------------:
D-|-----------------------------------:------------------------------:-------------------------:
A-|-----------------------------------:------------------------------:-------------------------:
E-|-----------------------------------:------------------------------:-------------------------:





E-|--8-----6h8p6--------------------:-------------------------------4h6---:
B-|---------------9--9h11\6--6------:--------9-----5h6--------------------:
G-|---------------------------------:--6----------------8--6--------------:
D-|---------------------------------:-------------------------8--6--------:
A-|---------------------------------:-------------------------------------:
E-|---------------------------------:-------------------------------------:





E-|--6-----6h7p6-------13--13--13--13--13---|--13--13----------13----------------------13----------13--------------|
B-|---------------9p7-----------------------|----------16--14------------------13--14------16--14------------------|
G-|-----------------------------------------|----------------------13--14--15-----------------------------14--15---|
D-|-----------------------------------------|----------------------------------------------------------------------|
A-|-----------------------------------------|----------------------------------------------------------------------|
E-|-----------------------------------------|----------------------------------------------------------------------|






E-|-------------------------------------------------------------13---|----------13----------------------13h16--16---:
B-|--13--14--16--16--16--16-----14--13--16--13-----------------------|--16--14------------------13--14--------------:
G-|---------------------------------------------13-------------------|--------------13--14--15----------------------:
D-|-------------------------------------------------15--13-----------|----------------------------------------------:
A-|---------------------------------------------------------15-------|----------------------------------------------:
E-|------------------------------------------------------------------|----------------------------------------------:





E-|--16--16p14--14-----13h14p13-----------------------|-------------------6--9--8h9p8--6--8---:
B-|------------------------------16--16--14--13-------|--14/16--14\12--6----------------------:
G-|----------------------------------------------15---|---------------------------------------:
D-|---------------------------------------------------|---------------------------------------:
A-|---------------------------------------------------|---------------------------------------:
E-|---------------------------------------------------|---------------------------------------:





E-|--8-----6h8p6--------------------:-------------------------------4h6---:
B-|---------------9--9h11\6--6------:--------9-----5h6--------------------:
G-|---------------------------------:--6----------------8--6--------------:
D-|---------------------------------:-------------------------8--6--------:
A-|---------------------------------:-------------------------------------:
E-|---------------------------------:-------------------------------------:




E-|--6-----6h7p6--------------
B-|---------------9\7---------
G-|---------------------------
D-|---------------------------
A-|---------------------------
E-|---------------------------


__________________________________________________

Almost there ...

Sign in to get your own page with links to favourite songs and more. You are just one click away...

Login with Facebook Login with Google