Log in

One click and you are in

Login with Facebook Login with Google

Why sign up and log in

Guitar Tabs Explorer
Steve Oliver tabs for Good to go

Guitar tabs

This is the first single from his latest CD, Radiant;
a high energy
song in the vein of "High Noon" or "Chips and Salsa".
Enjoy!
Tablature Explanation:
p=pull-off
h=hammer-on
/=slide up
\=slide down
~=vibrato

Note: Many of the slides down (especially the ones
that are more than
2 frets) are just meant to slide down toward the lower

note, and fade,
 before actually reaching that note.


E-|-------------:-----|------------------:------|------------------:
B-|-------------:-----|------------------:------|------------------:
G-|-------------:-----|--7h9p7--5--5/7---:------|------------------:
D-|--5h7p5--7---:-----|------------------:------|--5--5h7--5h7-----:
A-|-------------:-----|------------------:------|------------------:
E-|-------------:-----|------------------:------|------------------:





E-|-----:----------------:-------|----------------------------------|
B-|-----:----------------:-------|-------------------13-----13p12---|
G-|-----:--7h9p7--5/7----:----4h-|--5p4-----------------------------|
D-|-----:----------------:-------|-------7p5h7p5--------------------|
A-|-----:----------------:-------|----------------------------------|
E-|-----:----------------:-------|----------------------------------|




E-|----------------------------------|---------12-------------13--12|
B-|-----13--15--13p12-----15--15p13p-|-12--15------15p13------------|
G-|-14----------------14-------------|--------------------14--------|
D-|----------------------------------|------------------------------|
A-|----------------------------------|------------------------------|
E-|----------------------------------|------------------------------|





E-|13h15--13--13--11h12------------:----------------------------------:
B-|---------------------15--13--15/:17--14/15--13--13--13p12----13--15:
G-|--------------------------------:-------------------------14-------:
D-|--------------------------------:----------------------------------:
A-|--------------------------------:----------------------------------:
E-|--------------------------------:----------------------------------:





E-|--------------------------------12-:----------------13--12--13h15-:
B-|--13p12-------15--15p13p12--15-----:-15p13------------------------:
G-|---------14------------------------:--------14\11-----------------:
D-|-----------------------------------:------------------------------:
A-|-----------------------------------:------------------------------:
E-|-----------------------------------:------------------------------:





E-|-13--13--11h12-----------------------:-----------------------------:
B-|----------------15--13--15/17--14/15-13----------------------------:
G-|-------------------------------------:----------9------------------:
D-|-------------------------------------:------10-----12--10--10h11h12:
A-|-------------------------------------:--12-------------------------:
E-|-------------------------------------:-----------------------------:





E-|------------------:-------------------------|-----------------------|
B-|------------------:-------------------------|------------------13/15|
G-|-9--12--10--9--10-:-------9-----------------|-9--12--10--9--10------|
D-|------------------:----10---12--10--10h11h12|-----------------------|
A-|------------------:12-----------------------|-----------------------|
E-|------------------:-------------------------|-----------------------|





E-|---------------------------------:---------------------------------|
B-|--15--13h15p13\9-----------------:---------------------------------|
G-|-----------------------------9---:--------------------9--12--10--9-|
D-|----------------------10---------:--12--10--10h11h12---------------|
A-|------------------12-------------:---------------------------------|
E-|---------------------------------:---------------------------------|





E-|-------------------:-----------------------------------------------:
B-|-------------------:-----------------------13--13--12h13p12h-------:
G-|--10------------9--:--------------------9-------------------14--12-:
D-|-----------10------:--12--10--10h11h12-----------------------------:
A-|-------12----------:-----------------------------------------------:
E-|-------------------:-----------------------------------------------:





E-|------------------------------------------:--------------------:
B-|----------------13h15--13--12h13p12-------:---------------13---:
G-|---------12h14-----------------------14---:--12---14\12--------:
D-|--14h15-----------------------------------:--------------------:
A-|------------------------------------------:--------------------:
E-|------------------------------------------:--------------------:





E-|-------------------------------------------:
B-|--13p12------13--15--13p12---------15------:
G-|---------14-----------------14-------------:
D-|-------------------------------------------:
A-|-------------------------------------------:
E-|-------------------------------------------:





E-|----------------12--------------13--:--12--13h15--13--13--11h12----|
B-|--15p13p12--15------15p13-----------:---------------------------15-|
G-|---------------------------14-------:------------------------------|
D-|------------------------------------:------------------------------|
A-|------------------------------------:------------------------------|
E-|------------------------------------:------------------------------|





E-|-------------------------------|-----------------------------------|
B-|-13--15/17--14/15--13--13--13p-|-12------13--15--13p12-----15--15p-|
G-|-------------------------------|-----14----------------14----------|
D-|-------------------------------|-----------------------------------|
A-|-------------------------------|-----------------------------------|
E-|-------------------------------|-----------------------------------|





E-|------------10/12-------------13--12--:-13h15--13--17--15--13--11h-|
B-|-13p12--15---------15p13--------------:----------------------------|
G-|--------------------------14----------:----------------------------|
D-|--------------------------------------:----------------------------|
A-|--------------------------------------:----------------------------|
E-|--------------------------------------:----------------------------|





E-|-12p11---------------------------|---------------------------------:
B-|--------15--13--13h15\11---------|---------------------------------:
G-|---------------------------------|-9-------------------9--12--10--9:
D-|------------------------------10-|---12--10--10h11h12--------------:
A-|--------------------------12-----|---------------------------------:
E-|---------------------------------|---------------------------------:





E-|------------------:--------------------------------------------:
B-|------------------:-----------------------8h9h10--8------------:
G-|--10------------9-:--------------------9--------------10p9--10-:
D-|----------10------:--12--10--10h11h12--------------------------:
A-|------12----------:--------------------------------------------:
E-|------------------:--------------------------------------------:





E-|-----------------------:-----------------------------------------:
B-|--13/15--15--13h15p13\-:--9--------------------------------------:
G-|-----------------------:---------------9-------------------9--12-:
D-|-----------------------:---------10-------12--10--10h11h12-------:
A-|-----------------------:-----12----------------------------------:
E-|-----------------------:-----------------------------------------:





E-|--------------------:---------------------------------------------|
B-|--------------------:----------------------------------------13---|
G-|--10-----9--10------:-------------9-----------------------9-------|
D-|--------------------:------10--------12--10-----10h11h12----------|
A-|--------------------:--12-----------------------------------------|
E-|--------------------:---------------------------------------------|





E-|-----------------------------------------:-----------------------:
B-|-13--12h13p12h---------------------13h15-:-13--12h13p12----------:
G-|-------------14--12--------12h14---------:--------------12h14p12-:
D-|--------------------14h15----------------:-----------------------:
A-|-----------------------------------------:-----------------------:
E-|-----------------------------------------:-----------------------:





E-|-----------------------------12-------------------|
B-|--12----------12--13------12------15--13h15p13--12|
G-|------12--14----------14--------------------------|
D-|--------------------------------------------------|
A-|--------------------------------------------------|
E-|--------------------------------------------------|





E-|----------------------------------|------------------12------------|
B-|-13--13p12------13--15--13p12-----|15--15p13p12--15------15p13-----|
G-|------------14-----------------14-|-----------------------------14-|
D-|----------------------------------|--------------------------------|
A-|----------------------------------|--------------------------------|
E-|----------------------------------|--------------------------------|





E-|--13--12--13h15--13---13---:--11h12------------------------------:
B-|---------------------------:---------15--13--15/17--14/15--13----:
G-|---------------------------:-------------------------------------:
D-|---------------------------:-------------------------------------:
A-|---------------------------:-------------------------------------:
E-|---------------------------:-------------------------------------:





E-|---------------------------------:------------------10/12----------:
B-|-13--13p12------13--15--13p12----:-15--15p13p12--15-------15p13----:
G-|------------14-----------------14:-------------------------------14:
D-|---------------------------------:---------------------------------:
A-----------------------------------:---------------------------------:
E-|---------------------------------:---------------------------------:





E-|--13--12--13h15--13---17---:--15--13---11h12p11-------------------:
B-|---------------------------:---------------------15--13h15--15\11-:
G-|---------------------------:--------------------------------------:
D-|---------------------------:--------------------------------------:
A-|---------------------------:--------------------------------------:
E-|---------------------------:--------------------------------------:





E-|------------------|-------------------------------------------|
B-|------------------|-------------10--13--12h13p12--15--13p12---|
G-|------9--12--10---|--9--10--12--------------------------------|
D-|--10--------------|-------------------------------------------|
A-|------------------|-------------------------------------------|
E-|------------------|-------------------------------------------|





E-|------------------------------------------|
B-|------------------------------------------|
G-|--14-------------9--12--10--9--10h12p10---|
D-|-------------10---------------------------|
A-|------12----------------------------------|
E-|------------------------------------------|





E-|------------------8--8/10--8--7h8p7--10-|-13--13--12--10------------|
B-|----------10--12------------------------|-----------------13--10h12h|
G-|-9h10h12--------------------------------|---------------------------|
D-|----------------------------------------|---------------------------|
A-|----------------------------------------|---------------------------|
E-|----------------------------------------|---------------------------|





E-|-----12--12--10--------------------------|
B-|-13--------------13--12h13p12--10h11h12h-|
G-|-----------------------------------------|
D-|-----------------------------------------|
A-|-----------------------------------------|
E-|-----------------------------------------|





E-|------10--11--12--13--13--12--10-------:
B-|--13------------------------------13---:
G-|---------------------------------------:
D-|---------------------------------------:
A-|---------------------------------------:
E-|---------------------------------------:





E-|------------10h12h13--12--10------12--10-------|
B-|--10h12h13--------------------13----------13---|
G-|-----------------------------------------------|
D-|-----------------------------------------------|
A-|-----------------------------------------------|
E-|-----------------------------------------------|




E-|----------------------------------------------10--13/15/17---:
B-|--12--10------12--10----------------10h11h13-----------------:
G-|-----------12----------12--10h11h13--------------------------:
D-|-------------------------------------------------------------:
A-|-------------------------------------------------------------:
E-|-------------------------------------------------------------:




     ~ 8 measures

E-|---------------:------:-------------------------------------------:
B-|---------------:---5--:--5--5--5--5--5--6---5--5--6p5--6--6--6--6-:
G-|---------------:------:-------------------------------------------:
D-|---------------:------:-------------------------------------------:
A-|---------------:------:-------------------------------------------:
E-|---------------:------:-------------------------------------------:





E-|-----------------------------------------------------7---:
B-|--6--6--8-----6-----6--8--6-----8--8--8--10--10--10------:
G-|---------------------------------------------------------:
D-|---------------------------------------------------------:
A-|---------------------------------------------------------:
E-|---------------------------------------------------------:





E-|--7--7--8-----7--8--7h8p7------12---------:
B-|---------------------------10-------------:
G-|------------------------------------------:
D-|------------------------------------------:
A-|------------------------------------------:
E-|------------------------------------------:





E-|---------------------------------:-------------------12------------:
B-|-13--13p12------13--15--13p12----:-15--15p13p12--15------15p13-----:
G-|------------14-----------------14:------------------------------14-:
D-|---------------------------------:---------------------------------:
A-|---------------------------------:---------------------------------:
E-|---------------------------------:---------------------------------:





E-|-----13--12--13h15--13-----13---:--11h12---------------------------:
B-|--------------------------------:---------15--13--15/17-----15--13-:
G-|--------------------------------:----------------------------------:
D-|--------------------------------:----------------------------------:
A-|--------------------------------:----------------------------------:
E-|--------------------------------:----------------------------------:





E-|----------------------------------:---------------10/12------------:
B-|-13--13p12------13--15--13p12-----:-15-15p13p12----------15p13-----:
G-|------------14-----------------14-:-----------------------------14-:
D-|----------------------------------:--------------------------------:
A-|----------------------------------:--------------------------------:
E-|----------------------------------:--------------------------------:





E-|--13--12--13h15--13--17--|--15--13--11h12p11-------------10/12---:
B-|-------------------------|--------------------15--13--15---------:
G-|-------------------------|---------------------------------------:
D-|-------------------------|---------------------------------------:
A-|-------------------------|---------------------------------------:
E-|-------------------------|---------------------------------------:





E-|--12---------------------------------------------12--12---:
B-|------15--13--15--15--13-------------13--13--15-----------:
G-|--------------------------14--12h14-----------------------:
D-|----------------------------------------------------------:
A-|----------------------------------------------------------:
E-|----------------------------------------------------------:





E-|---------------------------------------------13--13--12---:
B-|--15--13--15--15--13-------------12--13--15---------------:
G-|----------------------14--12h14---------------------------:
D-|----------------------------------------------------------:
A-|----------------------------------------------------------:
E-|----------------------------------------------------------:





E-|------12--12------13--12-----12--12---------13p12-------:
B-|--15----------15---------------------15------------15---
G-|--------------------------------------------------------:
D-|--------------------------------------------------------:
A-|--------------------------------------------------------:
E-|--------------------------------------------------------:





E-|------12---------------------------------------------|
B-|--13------15--13--12--13p12---------------------13---|
G-|-----------------------------14--12------------------|
D-|-------------------------------------15--14\11-------|
A-|-----------------------------------------------------|
E-|-----------------------------------------------------|





E-|-------------------------------|--------------10/12------------13-:
B-|-13p12-----13--15--13p12----15-|-15p13p12--15-------15p13---------:
G-|-------14----------------14----|---------------------------14-----:
D-|-------------------------------|----------------------------------:
A-|-------------------------------|----------------------------------:
E-|-------------------------------|----------------------------------:





E-|--12--13h15--13-----17-----15-----13------:
B-|------------------------------------------:
G-|------------------------------------------:
D-|------------------------------------------:
A-|------------------------------------------:
E-|------------------------------------------:





E-|--11h12p11---------------------------------------------:
B-|------------15-----13-----13h15--13p12-------------13p-:
G-|--------------------------------------------14---------:
D-|----------------------------------------14-------------:
A-|-------------------------------------------------------:
E-|-------------------------------------------------------:





E-|-----------------------------------------------------------:
B-|--12---------------------13p12-------------13p12-----------:
G-|----------14--12--14----------------14----------------14---:
D-|------14------------------------14----------------14-------:
A-|-----------------------------------------------------------:
E-|-----------------------------------------------------------:





E-|-------------12---------------------12----------------------:
B-|-----------------13---------------------13-------------13---:
G-|--12--14-----------------14---------------------14----------:
D-|---------------------14------15-------------14--------------:
A-|------------------------------------------------------------:
E-|------------------------------------------------------------:






E-|----------------------------------------------------------|
B-|--15-----15p13p12------13p12------------------------------|
G-|-------------------14---------14--13--12------------------|
D-|------------------------------------------15--14--12------|
A-|------------------------------------------------------15\-|
E-|----------------------------------------------------------|






E-|--------------------------------------------------------------:
B-|------13p12-------------13p12---------------------13p12-------:
G-|-----------------14----------------14--12--14-----------------:
D-|-------------14----------------14------------------------14---:
A-|--12----------------------------------------------------------:
E-|--------------------------------------------------------------:





E-|-----------------------------------10/12--12--12------:
B-|---------13p12----------------------------------------:
G-|--14----------------14--12--14------------------------:
D-|----------------14------------------------------------:
A-|------------------------------------------------------:
E-|------------------------------------------------------:





E-|--12--13--12-----13-----12------------------------:
B-|-------------------------------15-----13h15--15---:
G-|--------------------------------------------------:
D-|--------------------------------------------------:
A-|--------------------------------------------------:
E-|--------------------------------------------------:





E-|--------------------:-----------------:--------------------------:
B-|--13h15p13p12--13\9-:--13--13p12------:-----------13--13p12------:
G-|--------------------:-------------14--:-11h12h14-------------14~-:
D-|--------------------:-----------------:--------------------------:
A-|--------------------:-----------------:--------------------------:
E-|--------------------:-----------------:--------------------------:





E-|------------13--13p12------:--15p13p12----------------------------:
B-|--12h13h15-------------15--:------------15--12--------------------:
G-|---------------------------:--------------------14p12--14--12-----:
D-|---------------------------:-----------------------------------14-:
A-|---------------------------:--------------------------------------:
E-|---------------------------:--------------------------------------:



                i      fade

E-|-------------------------------------------------|
B-|-------------13-----13p--12------13--15--13p12---|
G-|-----------------------------14------------------|
D-|--12--14\12--------------------------------------|
A-|-------------------------------------------------|
E-|-------------------------------------------------|





E-|--------------------------10/12--------:-------------------------|
B-|-------15--15p13p12--15----------15p13-:-------------------------|
G-|--14-----------------------------------:-14\9----------10/12-----|
D-|---------------------------------------:-------15--14---------15-|
A-|---------------------------------------:-------------------------|
E-|---------------------------------------:-------------------------|






__________________________________________________

Almost there ...

Sign in to get your own page with links to favourite songs and more. You are just one click away...

Login with Facebook Login with Google