Log in

One click and you are in

Login with Facebook Login with Google

Why sign up and log in

Guitar Tabs Explorer
Steve Oliver tabs for Days end

Guitar tabs

This is a nice, laid back song. Enjoy!


Tablature Explanation:
p=pull-off
h=hammer-on
/=slide up
\=slide down
~=vibrato

Note: Many of the slides down (especially the ones
that are more than 2 frets) are just meant to slide
down toward the lower note, and fade, before actually
reaching that note.


E-|------------|-----|---------|----------------------:------------|
B-|------------|-----|---------|----------------------:------------|
G-|------------|--7--|---------|------7--8--10/12--12-:------------|
D-|--10-9--10--|-----|--10--8--|--10------------------:--10--8--10-|
A-|------------|-----|---------|----------------------:------------|
E-|------------|-----|---------|----------------------:------------|




E-|-----------------------|------------------------|--------------|
B-|-----------------------|------------------------|--------------|
G-|--7--8-----10/12--12---|-----10/12--10h12p10\8--|--10---8--7---|
D-|-----------------------|------------------------|--------------|
A-|-----------------------|------------------------|--------------|
E-|-----------------------|------------------------|--------------|



E-|--------------------------------:
B-|--------------------------------:
G-|--8--7h8p7----------------------:
D-|------------10--9===\5--10--8---:
A-|--------------------------------:
E-|--------------------------------:




E-|------------------------:--------------:-----------------------:
B-|------------------------:--------------:--------------------8--:
G-|------7--8--10/12--12---:--------------:--7--8---10/12--12-----:
D-|--10--------------------:--10--8--10---:-----------------------:
A-|------------------------:--------------:-----------------------:
E-|------------------------:--------------:-----------------------:





E-|-----------:-----------------:------6--6--:------6--8--8/10--8-:
B-|-9--8------:-----8--9--8--9--:-6/8--------:-6/8----------------:
G-|-------10--:-10--------------:------------:--------------------:
D-|-----------:-----------------:------------:--------------------:
A-|-----------:-----------------:------------:--------------------:
E-|-----------:-----------------:------------:--------------------:





E-|--6-------6-:-6-----6--8-------:----------------:---------6--6-:
B-|-----6/8----:----8--------6h8p-:--6-------------:----6/8-------:
G-|------------:------------------:-----7h8p7--5~b-:-3------------:
D-|------------:------------------:----------------:--------------:
A-|------------:------------------:----------------:--------------:
E-|------------:------------------:----------------:--------------:





E-|-------6--8--8/10--8h10p-|--8--6------------:---------------:
B-|--6/8--------------------|--------9--8------:--------8--6---:
G-|-------------------------|--------------8---:---------------:
D-|-------------------------|------------------:--8/10---------:
A-|-------------------------|------------------:---------------:
E-|-------------------------|------------------:---------------:





E-|----------8--10--8--10--12--:
B-|-----11---------------------:
G-|----------------------------:
D-|----------------------------:
A-|----------------------------:
E-|----------------------------:





E-|----8--8/10--7h8p7---|--------------|-------------8--8/10--7h8p-|
B-|-------------------8-|--------------|---------------------------|
G-|-9-------------------|-9--7/9--7----|--------8/9----------------|
D-|---------------------|-----------10-|-9--10---------------------|
A-|---------------------|--------------|---------------------------|
E-|---------------------|--------------|---------------------------|





E-|--7----------:----------8--8/10---|--7h8p7--------------------:
B-|-----8--10---:--------------------|---------8-----------------:
G-|-------------:-----8/9------------|------------9--9/10\9--7---:
D-|-------------:--------------------|---------------------------:
A-|-------------:--------------------|---------------------------:
E-|-------------:--------------------|---------------------------:





E-|-------------------------|
B-|-------------------------|
G-|-------------------------|
D-|--10--9/10\9--7------7---|
A-|-----------------10------|
E-|-------------------------|





E-|-----------------------|-----------------:---------------------:
B-|--------------8--8-----|------------10\8-:---------------------:
G-|--------------------10-|--9--10----------:------------7--8--10/:
D-|--9/10\9---------------|---------10------:-10--8--10-----------:
A-|----------10-----------|-----------------:---------------------:
E-|-----------------------|-----------------:---------------------:





E-|-------------|------------------------:-------:----------------:
B-|-------------|------------------------:-------:----------------:
G-|--12--12-----|--------7--8--10/12--12-:-10/12-:--10h12p10\8--10:
D-|----------10-|-8--10------------------:-------:----------------:
A-|-------------|------------------------:-------:----------------:
E-|-------------|------------------------:-------:----------------:





E-|----------------------|--------------------|--------------------:
B-|----------------------|--------------------|--------11----------:
G-|-8--7--8--7h8p7-------|---------------7--8-|-10/12------12~-----:
D-|----------------10--9=|\5--10--8--10-------|-----------------10-:
A-|----------------------|--------------------|--------------------:
E-|----------------------|--------------------|--------------------:





E-|------------------------:--------------:------------:-----------|
B-|---------------------11-:-----11--9--8-:-9--8--9--8-:-----------|
G-|--------7--8--10/12-----:-12~----------:------------:-10--8--10-|
D-|-8--10------------------:--------------:------------:-----------|
A-|------------------------:--------------:------------:-----------|
E-|------------------------:--------------:------------:-----------|





E-|------6--6------:-6--8--8/10--8--6-:------6--6----:-6--8--------:
B-|-6/8--------6/8-:------------------:-6/8--------8-:-------6h8p6-:
G-|----------------:------------------:--------------:-------------:
D-|----------------:------------------:--------------:-------------:
A-|----------------:------------------:--------------:-------------:
E-|----------------:------------------:--------------:-------------:





E-|------------------:---6--6-----6--8-----:-6--8--8/10--8h10p8--6-:
B-|----------------6/:8--------8-------6/8-:-----------------------:
G-|-7h8p7--5~b6-3----:---------------------:-----------------------:
D-|------------------:---------------------:-----------------------:
A-|------------------:---------------------:-----------------------:
E-|------------------:---------------------:-----------------------:





E-|---------------:-------:--:----8--8/10--7h8p7----:--------------:
B-|-9--8----------:-8-----:--:--------------------8-:--------------:
G-|-------8-------:----10-:--:-9--------------------:-9--7/9--7----:
D-|----------8/10-:-------:--:----------------------:-----------10-:
A-|---------------:-------:--:----------------------:--------------:
E-|---------------:-------:--:----------------------:--------------:





E-|-------------8--8/10--7h:8p7-------10/:12---12\10--10\8--8-----8:
B-|------------------------:----8--10----:-------------------------:
G-|--------8/9-------------:-------------:---9---------------8/9---:
D-|-9--10------------------:-------------:-------------------------:
A-|------------------------:-------------:-------------------------:
E-|------------------------:-------------:-------------------------:





E-|-8/10--7h8p7----------:-------------------------------:
B-|--------------8-------:-------------------------------:
G-|-----------------9--9/:-10\9--7-----------------------:
D-|----------------------:----------10--9/10\9--7------7-:
A-|----------------------:-------------------------10----:
E-|----------------------:-------------------------------:





E-|------------------:-------------8--10--11---:
B-|-------------8--8-:-------------------------:
G-|------------------:--10--9--10--------------:
D-|-9/10\9-----------:-------------------------:
A-|---------10-------:-------------------------:
E-|------------------:-------------------------:





E-|--11--10--11-----------------:-----------------------:
B-|--------------11--8--9--11---:--9h11p9p8--9--8-------:
G-|-----------------------------:------------------10---:
D-|-----------------------------:-----------------------:
A-|-----------------------------:-----------------------:
E-|-----------------------------:-----------------------:




                    u
E-|---------------------|--8--10--11--10--11----------:
B-|---------------------|---------------------11--8---:
G-|--8--7--8--7---------|-----------------------------:
D-|--------------10\8---|-----------------------------:
A-|---------------------|-----------------------------:
E-|---------------------|-----------------------------:





E-|----------------------:--------------------8h10h11--13--13~13/15:
B-|9--11--9h11p9p8--9--8h:9p8----------8h9h11----------------------:
G-|----------------------:---10--8--10-----------------------------:
D-|----------------------:-----------------------------------------:
A-|----------------------:-----------------------------------------:
E-|----------------------:-----------------------------------------:





E-|--15-------15--15--15--15/16--15--13--15--13---|
B-|-----------------------------------------------|
G-|-----------------------------------------------|
D-|-----------------------------------------------|
A-|-----------------------------------------------|
E-|-----------------------------------------------|





E-|--11------10--11--10-----------------------------:
B-|------13--------------13--15h16p15--13------13---:
G-|----------------------------------------15-------:
D-|-------------------------------------------------:
A-|-------------------------------------------------:
E-|-------------------------------------------------:




                                   x
E-|--13h15------15/16------16/18--18\18\18--18---:
B-|----------------------------------------------:
G-|---------12---------13------------15-15-------:
D-|----------------------------------------------:
A-|----------------------------------------------:
E-|----------------------------------------------:





E-|----18--18---18--18--16--16--16----16----15---15----15--15---13-:
B-|----------------------------------------------------------------:
G-|-15-------15--------------------13----13---13----12-------12----:
D-|----------------------------------------------------------------:
A-|----------------------------------------------------------------:
E-|----------------------------------------------------------------:





E-|--11/13--11----------11--11/13---|--10h11p10-----------------|
B-|---------------------------------|------------11-------------|
G-|-------------8/--12--------------|----------------10/12--10/-|
D-|---------------------------------|---------------------------|
A-|---------------------------------|---------------------------|
E-|---------------------------------|---------------------------|





E-|------------------------------|
B-|------------------------------|
G-|--12--10--------------11/12---|
D-|----------13--12--13----------|
A-|------------------------------|
E-|------------------------------|





E-|--11--11/13--10h11p10-----------:--13/15--15--15\13--13\11--11-:
B-|-----------------------11--13---:------------------------------:
G-|--------------------------------:------------------------------:
D-|--------------------------------:------------------------------:
A-|--------------------------------:------------------------------:
E-|--------------------------------:------------------------------:





E-|---------11--11/13--10h11p10-----------:
B-|------------------------------11-------:
G-|--11/12---------------------------12---:
D-|---------------------------------------:
A-|---------------------------------------:
E-|---------------------------------------:





E-|-----------------------------------:-------------------------:
B-|-----------------------------------:-------------------------:
G-|--12/13\12--10---------------------:-------------------------:
D-|----------------13--12/13\12--10---:------10--12/13\12-------:
A-|-----------------------------------:--13----------------13---:
E-|-----------------------------------:-------------------------:





E-|--------------------------------------|
B-|--11--11--11--------------------------|
G-|--------------13--13--13--12--12--12h-|
D-|--------------------------------------|
A-|--------------------------------------|
E-|--------------------------------------|





E-|-----------------------------------------------:
B-|-----------------------------------------------:
G-|--13p12----------------------------------------:
D-|---------15--13--15--15--15h16p15--13--15--13\-:
A-|-----------------------------------------------:
E-|-----------------------------------------------:



E-|------------11--11/13--10h11p10-------:
B-|---------------------------------11---:
G-|------8/12----------------------------:
D-|--11----------------------------------:
A-|--------------------------------------:
E-|--------------------------------------:





E-|-------------------------:-----------------11--11/13--10h-:
B-|-------------------------:--------------------------------:
G-|--10/12--10/12--10-------:----------11/12-----------------:
D-|--------------------13---:--12--13------------------------:
A-|-------------------------:--------------------------------:
E-|-------------------------:--------------------------------:




E-|--11p10-----------:------------11--11/13---:
B-|---------11--13---:------------------------:
G-|------------------:-----11/12--------------:
D-| -----------------:------------------------:
A-|------------------:------------------------:
E-|------------------:------------------------:




E-|--10h11p10--------------:--------------------------:
B-|------------11----------:--------------------------:
G-|----------------10/12---:--10/12--10---------------:
D-|------------------------:-------------13--12--10---:
A-|------------------------:--------------------------:
E-|------------------------:--------------------------:





E-|-----------------------------:----------------------------------:
B-|----------------11--11-------:--------------------------11------:
G-|------------------------13---:--12--13----------13--13------13--:
D-|--12/13\12-------------------:--------------13------------------:
A-|------------13---------------:----------15----------------------:
E-|-----------------------------:----------------------------------:





E-|---------11-------------------------------:
B-|-----------------------------11-----------:
G-|--12--13\13--------------13------13--12---:
D-|-----------------13-----------------------:
A-|-------------15------15-------------------:
E-|------------------------------------------:





E-|-------------------------:--------------------------------------:
B-|-------------------11----:---------------------------11---------:
G-|-13---------13--------13-:-12--13---------13-----13-----13----13:
D-|--------13---------------:------------13-------------------13---:
A-|----15---------15--------:--------15---------15-----------------:
E-|-------------------------:--------------------------------------:




E-|----------11--10--12---:
B-|------------------13---:
G-|------------------12---:
D-|------13----------14---:
A-|--15--------------15---:
E-|-----------------------:





__________________________________________________

Almost there ...

Sign in to get your own page with links to favourite songs and more. You are just one click away...

Login with Facebook Login with Google