Log in

One click and you are in

Login with Facebook Login with Google

Why sign up and log in

Guitar Tabs Explorer
Steve Oliver tabs for Chips and salsa

Guitar tabs

This is a great, high energy nylon string song from
Steve Oliver.
The TAB is not perfect, but
you can tweak it to fit your ears. Enjoy!
Tablature Explanation:
p=pull-off
h=hammer-on
/=slide up
\=slide down

Note: Most of the slides down are just meant to slide
down toward the
lower note, and fade, before actually reaching that

note.


E-|--12------12---------10----------:--10------------------12----------:
B-|------12---------12------10------:------13p12--10--------------12---:
G-|---------------------------------:-----------------12---------------:
D-|---------------------------------:----------------------------------:
A-|---------------------------------:----------------------------------:
E-|---------------------------------:----------------------------------:





E-|--12------10---------------:-------------|-------------------------:
B-|------12------10---11h12---:-------------|-------------------------:
G-|---------------------------:-------------|-------------------------:
D-|---------------------------:-------------|-------------------------:
A-|---------------------------:---7---7h9---|--9--10---9---9h10--10---:
E-|-----------------------------------------|-------------------------:




E-|--------------------:-----------------------|-----------------------:
B-|--------------------:-----------------------|-----------------------:
G-|--------------------:-----------------------|-----------------------:
D-|--7-----------------:-------6h7-------------|-----------------------:
A-|------7----7h9--9---:--10--------10--9--10--|--9\--5--7-----7h9--9--:
E-|--------------------:-----------------------|-----------------------:





E-|-------------------:--------------------:---------------------------:
B-|-------------------:--------------------:---------------------------:
G-|-------------------:--------------------:---------------------------:
D-|-------------------:--7--9--------------:------5h7--5h7p5--4--7/9---:
A-|--10--9--9h10--10--:--------7---7h9--9--:--10-----------------------:
E-|-------------------:--------------------:---------------------------:





E-|----|------------------|---------------7----|-----------------------|
B-|----|----7--7--8---7---|--7h8--8--10--------|----7--7--8--10--8h10p-|
G-|--9-|-9----------------|------------------9-|--9--------------------|
D-|----|------------------|--------------------|-----------------------|
A-|----|------------------|--------------------|-----------------------|
E-|----|------------------|--------------------|-----------------------|





E-|--------------------------:---------8h10--8h10p8--7-:-8--5h7--------:
B-|-8--7--8--7---------------:-7--7--8-----------------:--------10\7---:
G-|-------------8h9p8p5--9--9:-------------------------:-------------9-:
D-|--------------------------:-------------------------:---------------:
A-|--------------------------:-------------------------:---------------:
E-|--------------------------:-------------------------:---------------:





E-|--------------------------:-----4/12--------:-12----10----10--------:
B-|----7--7--8--8h10--8--10h-:-12--------12-10-:----12----10----13p12--:
G-|-9------------------------:-----------------:-----------------------:
D-|--------------------------:-----------------:-----------------------:
A-|--------------------------:-----------------:-----------------------:
E-|--------------------------:-----------------:-----------------------:





E-|----------12----------12------|------10---------------------12------:
B-|--10----------12--10----------|--12------10--10h12--13--12----------:
G-|------12----------------------|-------------------------------------:
D-|------------------------------|-------------------------------------:
A-|------------------------------|-------------------------------------:
E-|------------------------------|-------------------------------------:





E-|-------------12---------10-------|----10----------------------------:
B-|--12----10----------12------10---|--------13p12--10------8--10------:
G-|---------------------------------|-------------------12-------------:
D-|---------------------------------|----------------------------------:
A-|---------------------------------|----------------------------------:
E-|---------------------------------|----------------------------------:





E-|-----------7---8--7h8p-|-7--12------------------:------------------:
B-|----8--10--------------|----12---------7---7--8-:--7--7h8--8--10---:
G-|-9---------9-----------|-----9---9--9-----------:------------------:
D-|-----------------------|-----9------------------:------------------:
A-|-----------------------|------------------------:------------------:
E-|-----------------------|------------------------:------------------:





E-|----------------|---------------------------|-----------------------:
B-|--------7--7--8-|--8h10--8h10p8--7--8--7----|--------------7--7h8---:
G-|--9--9----------|-------------------------9-|--8h9\5--9--9----------:
D-|----------------|---------------------------|-----------------------:
A-|----------------|---------------------------|-----------------------:
E-|----------------|---------------------------|-----------------------:





E-|-8h10--8h10p8--7--8--5/7--:--------------------:--------------------:
B-|--------------------------:-10p7--------7---7--:--8--8h10--8--10h12-:
G-|--------------------------:-------9--9---------:--------------------:
D-|--------------------------:--------------------:--------------------:
A-|--------------------------:--------------------:--------------------:
E-|--------------------------:--------------------:--------------------:





E-|--4/12---------------12---------:--10---------10------------------:
B-|---------12---10------------12--:------10---------13p12--10-------:
G-|--------------------------------:----------------------------12---:
D-|--------------------------------:---------------------------------:
A-|--------------------------------:---------------------------------:
E-|--------------------------------:---------------------------------:





E-|--12------------12------10---:----------------------12-------------:
B-|-------12--10-------12-------:--10---10h12--13--12---------12------:
G-|-----------------------------:-------------------------------------:
D-|-----------------------------:-------------------------------------:
A-|-----------------------------:-------------------------------------:
E-|-----------------------------:-------------------------------------:





E-|-------12--------10-------10---:------------------------------------:
B-|--10---------12------10--------:--13p12--10------8--10----------8---:
G-|-------------------------------:-------------12-----------9---------:
D-|-------------------------------:------------------------------------:
A-|-------------------------------:------------------------------------:
E-|-------------------------------:------------------------------------:





E-|----7-8--7h8p7-3/:-12\==\9-------7:-5h7p5---------------------------:
B-|-10--------------:---------8--10--:--------8--7--8--7--8--7----------:
G-|----9------------:----------------:--------------------------9--7p5-:
D-|-----------------:----------------:---------------------------------:
A-|-----------------:----------------:---------------------------------:
E-|-----------------:----------------:---------------------------------:





E-|------------------------:------------12----:--------7-----5h7p5---:
B-|------------------------:------------12----:--8--10---------------:
G-|--4--4h5p4h5p4h5p4h5p4h-:--5p4h5p4----9----:----------------------:
D-|------------------------:-------------9----:----------------------:
A-|------------------------:------------------:----------------------:
E-|------------------------:------------------:----------------------:





E-|--------:7--7--7--7--7-----:-7--7--7--7-----------7--7--7--7--------:
B-|-8--7-8-:--------------8-10:------------10--8--10------------10-8-10:
G-|--------:------------------:----------------------------------------:
D-|--------:------------------:----------------------------------------:
A-|--------:------------------:----------------------------------------:
E-|--------:------------------:----------------------------------------:





E-|-----------------------------------:---------------------7--8--8--8-:
B-|-8--7--7h8p7-----------------------:------------7h8--10-------------:
G-|--------------9--7--9--7-----------:-------7h9----------------------:
D-|--------------------------9--7--9--:--7h9---------------------------:
A-|-----------------------------------:--------------------------------:
E-|-----------------------------------:--------------------------------:





E-|-7--10p8p7------------------------:-------7----8--7--10h12--10p8h10-:
B-|------------10--8--7---------8--7-:-10--8---10----------------------:
G-|---------------------8--8--9------:---------------------------------:
D-|----------------------------------:---------------------------------:
A-|----------------------------------:---------------------------------:
E-|----------------------------------:---------------------------------:





E-|-12h15--14--12--10\8---:--7----------------------------------------:
B-|-----------------------:-----5--7--5-------------------------------:
G-|-----------------------:--------------7--0--5-----4--------4-------:
D-|-----------------------:-----------------------5-----5--7-----5----:
A-|-----------------------:-------------------------------------------:
E-|-----------------------:-------------------------------------------:





E-|---------------------------:-------------------:--------------------:
B-|---------------------------:----7--7---8---7---:---7h8--8--10-------:
G-|--------------------9------:-9-----------------:----------------9---:
D-|--7p5p4--1--2--4\2---------:-------------------:--------------------:
A-|---------------------------:-------------------:--------------------:
E-|---------------------------:-------------------:--------------------:





E-|-------------------:--------------------:------------------8/10--:
B-|----7--7--8--8h10--:--8p7h8--7p5--------:-----7---7--8-----------:
G-|-9-----------------:---------------9----:--9---------------------:
D-|-------------------:--------------------:------------------------:
A-|-------------------:--------------------:------------------------:
E-|-------------------:--------------------:------------------------:





E-|-8h10p8--7--8--5h7--5p-:-3----------------------:------------7--4/-:
B-|-----------------------:----------7--7--8--8h10-:--8--10h12--------:
G-|-----------------------:----9--9----------------:------------------:
D-|-----------------------:------------------------:------------------:
A-|-----------------------:------------------------:------------------:
E-|-----------------------:------------------------:------------------:





E-|--12-----------12-------10---:---------10-----------------12---:
B-|------12--10--------12-------:--10---------13p12--10-----------:
G-|-----------------------------:------------------------12-------:
D-|-----------------------------:---------------------------------:
A-|-----------------------------:---------------------------------:
E-|-----------------------------:---------------------------------:





E-|------------12--------10------:-------------------12----------------:
B-|--12---10---------12------10--:--10h13--12p10h12---------12-----10--:
G-|------------------------------:-------------------------------------:
D-|------------------------------:-------------------------------------:
A-|------------------------------:-------------------------------------:
E-|------------------------------:-------------------------------------:





E-|--12---------10--------10------:------------------------------------:
B-|---------12------10--------13p-:--12--10------8--10----------8--10--:
G-|-------------------------------:----------12-----------9------------:
D-|------------------------------:-------------------------------------:
A-|-------------------------------:------------------------------------:
E-|-------------------------------:------------------------------------:





E-|--7-----8-----7h8p7----:-----:--12--:---------12---------10-------:
B-|-----------------------:-----:------:--12------------12------10---:
G-|--9--------------------:-----:------:-----------------------------:
D-|-----------------------:-----:------:-----------------------------:
A-|-----------------------:-----:------:-----------------------------:
E-|-----------------------:-----:------:-----------------------------:





E-|12------12-----10:-----10-------------------:---------------8--7h8p-:
B-|----12-----12----:-10------13\12--10------8-:10----8--10------------:
G-|-----------------:--------------------12----:---9---------9---------:
D-|-----------------:--------------------------:-----------------------:
A-|-----------------:--------------------------:-----------------------:
E-|-----------------:--------------------------:-----------------------:





E-|-7--12----12--12--10-:--10--10--10--10---10---10--8p7h8p7--------12-:
B-|---------------------:-------------------------------------10p8-----:
G-|---------------------:----------------------------------------------:
D-|---------------------:----------------------------------------------:
A-|---------------------:----------------------------------------------:
E-|---------------------:----------------------------------------------:





E-|--12-12-12--10--10--10--10--10--10---:---8---7h8p7---------------12-:
B-|----------------10-------------------:--------------10--8h10--8-----:
G-|----------------11-------------------:------------------------------:
D-|----------------12-------------------:------------------------------:
A-|-------------------------------------:------------------------------:
E-|-------------------------------------:------------------------------:





E-|----12-----12-----12--10----10--10--10--10---8---|-----8h10p8p7h8p7-:
B-|-------------------------------------------------|------------------:
G-|-------------------------------------------------|------------------:
D-|-------------------------------------------------|------------------:
A-|-------------------------------------------------|------------------:
E-|-------------------------------------------------|------------------:





E-|--------------------------------------:--------12-------------------:
B-|10--8--7---8--10--8h10p8--7----7b8----:---7h8--12-------------------:
G-|----------------------------9-------8h:-9------12--12p11h12--12--11h:
D-|--------------------------------------:-----------------------------:
A-|--------------------------------------:-----------------------------:
E-|--------------------------------------:-----------------------------:





E-|------------------------------------------:
B-|--------------10--------------------------:
G-|-12p11h12p11------12--12p11h12--12-11h12p-:
D-|------------------------------------------:
A-|------------------------------------------:
E-|------------------------------------------:


E-|------------10--------------------------:
B-|----------------------------------------:
G-|--11h12p11-----12--12--12--11h12p11h12p-:
D-|----------------------------------------:
A-|----------------------------------------:
E-|----------------------------------------:





E-|----------------------------------:---------------------------------:
B-|-----10---------------------------:---------8p7--8p7--8--8p7--8p7--8:
G-|-11------12--11h12p11--9--11--8--9:-11--9p7-------------------------:
D-|----------------------------------:---------------------------------:
A-|----------------------------------:---------------------------------:
E-|----------------------------------:---------------------------------:





E-|-----------------------------------------
B-|-8p7--8p7--8p7--8--8p7--8p7--8--8p7--8p7-:
G-|-----------------------------------------:
D-|-----------------------------------------:
A-|-----------------------------------------:
E-|-----------------------------------------:


E-|--------------------------------------------:
B-|--8p7--8--8p7--8p7--8--8p7--8p7--8p7--8--8p-:
G-|--------------------------------------------:
D-|--------------------------------------------:
A-|--------------------------------------------:
E-|--------------------------------------------:





E-|------------------------7--8--10--8p7---:-8p7---------------------12:
B-|7--8--8p7--8p7--7h8--10---------------10:-----10--8p7----8----------:
G-|----------------------------------------:--------------9----9p8\5---:
D-|----------------------------------------:---------------------------:
A-|----------------------------------------:---------------------------:
E-|----------------------------------------:---------------------------:





E-|-------12------10----:-10---------------12:--------12-----10--------:
B-|12--10-----12------10:----13p12--10-------:-12--10-----12----10--13-:
G-|---------------------:---------------12---:-------------------------:
D-|---------------------:--------------------:-------------------------:
A-|---------------------:--------------------:-------------------------:
E-|---------------------:--------------------:-------------------------:





E-|------------12------------------:-12---------10---------10----------:
B-|--12p10h12---------12-----10----:--------12------10---------13p12---:
G-|--------------------------------:-----------------------------------:
D-|--------------------------------:-----------------------------------:
A-|--------------------------------:-----------------------------------:
E-|--------------------------------:-----------------------------------:





E-|-------------------------------:-----8-----7--4h12--12===:==-=\7--
B-|--10------8--10--------8--10---:--------------------12===:==-=\7--
G-|------12------------9----------:--9-----------------12===:==-=\7--
D-|-------------------------------:--------------------14===:==-=\9--
A-|-------------------------------:-------------------------:--------
E-|-------------------------------:-------------------------:--------



__________________________________________________

Almost there ...

Sign in to get your own page with links to favourite songs and more. You are just one click away...

Login with Facebook Login with Google