Log in

One click and you are in

Login with Facebook Login with Google

Why sign up and log in

Guitar Tabs Explorer
Steve Oliver tabs for 3d third dimension

Guitar tabs

This is one of Steve's more laid back songs. Not as
high energy as
 some  of the  other, but fun to play.

It's a great song. Enjoy!
Tablature Explanation:
p=pull-off
h=hammer-on
/=slide up
\=slide down

Note: Most of the slides down are just meant to slide
down toward the
 lower note, and fade, before actually reaching that

note.

     harmonics          harmonics

E-|--17---15---------:----------------|-----|------|------------10--8---|
B-|-------------15---:----------------|-----|------|--7--8--10----------|
G-|------------------:--12------------|-----|------|--------------------|
D-|------------------:-------12-------|-14--|------|--------------------|
A-|------------------:------------14--|-----|------|--------------------|
E-|------------------:----------------|-----|------|--------------------|





E-|7--8--7-----8:-7------7-|------------------|---:-12-|----------------:
B-|---------10--:----10----|-10--8--8/10--10/-|12-:-12-|-----7--8--10/12:
G-|-------------:----------|------------------|---:-12-|---9------------:
D-|-------------:----------|------------------|---:-14-|9---------------:
A-|-------------:----------|------------------|---:----|----------------:
E-|-------------:----------|------------------|---:----|----------------:




E-|------------------:-----------------:-----------------:------------:
B-|--12\10--10--8/10-:-8--7--8--7h8p7--:-----------------:-------7--8-:
G-|------------------:-----------------:-7---------------:----9-------:
D-|------------------:-----------------:----10--9h10p9\5-:-9----------:
A-|------------------:-----------------:-----------------:------------:
E-|------------------:-----------------:-----------------:------------:





E-|-------------------:-------------|-------------------:-------------:
B-|--10/12--12\10--10-:--8/10--8--7-|--8--6/7-----------:-------7--8p-:
G-|-------------------:-------------|---------7-----7h9-:----9--------:
D-|-------------------:-------------|------------9------:-9-----------:
A-|-------------------:-------------|-------------------:-------------:
E-|-------------------:-------------|-------------------:-------------:





E-|---------------------:---|-------|---------------------:----------|
B-|--7h8--10--10/12--10-:-8/|-10--8-|-7--8--6/7-----------:----------|
G-|---------------------:---|-------|------------7--------:----------|
D-|---------------------:---|-------|--------------10--9h-:-10p9\5--9|
A-|---------------------:---|-------|---------------------:----------|
E-|---------------------:---|-------|---------------------:----------|





E-|---------------10--10p-:--8--8---|--7h8--7h8p7---|--7h8p7------------|
B-|-----7--8p7h8----------:---------|---------------|---------10--10--7-|
G-|--9--------------------:---------|---------------|-------------------|
D-|-----------------------:---------|---------------|-------------------|
A-|-----------------------:---------|---------------|-------------------|
E-|-----------------------:---------|---------------|-------------------|





E-|--------------------:---------------6---|----------------------:----:
B-|--7h8-----------8---:-------------------|-----9--9h11--8h9p8---:----:
G-|----------7--8------:--10--8--7---------|----------------------:----:
D-|--------------------:------------8------|----------------------:----:
A-|--------------------:-------------------|----------------------:----:
E-|--------------------:-------------------|----------------------:----:





E-|--------------:---------------------6h-|--8-------------------------7-:
B-|--------------:--8---------------------|-----9-------------------7----:
G-|-----5--7h8---:-----10--8--7-----------|-------------------8----------:
D-|--------------:------------------8-----|------------10--------8-------:
A-|--------------:------------------------|--------11--------------------:
E-|--------------:------------------------|------------------------------:





E-|--9--6------7--9-:--9h11--12-:--14h16p14-:--10-8-:--7--8--7h8p7-----8:
B-|--------10-------:-----------:-----------:-------:--------------10---:
G-|-----------------:-----------:-----------:-------:-------------------:
D-|-----------------:-----------:-----------:-------:-------------------:
A-|-----------------:-----------:-----------:-------:-------------------:
E-|-----------------:-----------:-----------:-------:-------------------:





E-|--7h8p7----:-7--------------|-------:--:---------7--10-|--8-7-8-7h8p-|
B-|--------10-:----10--8--8/10-|-10/12-:--:--8--10--------|-------------|
G-|-----------:----------------|-------:--:---------------|-------------|
D-|-----------:----------------|-------:--:---------------|-------------|
A-|-----------:----------------|-------:--:---------------|-------------|
E-|-----------:----------------|-------:--:---------------|-------------|





E-|--7------10/12--10-|--8--10--8--7--7h8-:--7--7\5--5--5\3-:--3--2-----:
B-|-----10------------|-------------------:-----------------:--------3/5:
G-|-------------------|-------------------:-----------------:-----------:
D-|-------------------|-------------------:-----------------:-----------:
A-|-------------------|-------------------:-----------------:-----------:
E-|-------------------|-------------------:-----------------:-----------:





E-|---:---------------:---------------------:---------|-----------------:
B-|---:--------7--8---:--10/12--12\10--10---:--8/10---|--8--7--8--6/7---:
G-|---:-----9---------:---------------------:---------|-----------------:
D-|---:--9------------:---------------------:---------|-----------------:
A-|---:---------------:---------------------:---------|-----------------:
E-|---:---------------:---------------------:---------|-----------------:





E-|-----------------:--------------------|-----10--10p8--8-:--7--8--7-:
B-|-----------------:------------7--8p7h-|--8--------------:----------:
G-|--7--------------:---------9----------|-----------------:----------:
D-|-----10--9h10p9\-:--5--9--------------|-----------------:----------:
A-|-----------------:--------------------|-----------------:----------:
E-|-----------------:--------------------|-----------------:----------:





E-|--7h8p7------------:------------:---------------------:--------------|
B-|---------10--8--10-:--8--8\5----:------------8--------:------11--9---|
G-|-------------------:------------:--7--8--10-----10--8-:-7------------|
D-|-------------------:---------10-:---------------------:----8-------10|
A-|-------------------:------------:---------------------:--------------|
E-|-------------------:------------:---------------------:--------------|





E-|--------------:------:--------------------:--------------------------:
B-|--9h11--8h9p8-:------:--------------------:------------8-------------:
G-|--------------:--7---:--8--7--------------:--7--8--10-----10--8--7---:
D-|--------------:------:--------10--8--10---:--------------------------:
A-|--------------:------:--------------------:--------------------------:
E-|--------------:------:--------------------:--------------------------:





E-|-------------|-----------7--9-|---------7--9--9/11-:-12--14--16--16h-|
B-|-----9h11--9-|--------7-------|-11--10-------------:-----------------|
G-|-------------|-----8----------|--------------------:-----------------|
D-|--8----------|-10-------------|--------------------:-----------------|
A-|-------------|----------------|--------------------:-----------------|
E-|-------------|----------------|--------------------:-----------------|





E-|-17p16--14--10-:--8--7--8--7h-|--8p7-----8--7h-|--8p7----7-----------:
B-|---------------:--------------|------10--------|------10---10--8--8/-:
G-|---------------:--------------|----------------|---------------------:
D-|---------------:--------------|----------------|---------------------:
A-|---------------:--------------|----------------|---------------------:
E-|---------------:--------------|----------------|---------------------:





E-|------------:----:------------------|-10--8--7h8p7-:-8--7------10/12-|
B-|--10--10/12-:-7h-:--8p7-----------8-|--------------:-------10--------|
G-|------------:----:-------9--7--9----|--------------:-----------------|
D-|------------:----:------------------|--------------:-----------------|
A-|------------:----:------------------|--------------:-----------------|
E-|------------:----:------------------|--------------:-----------------|





E-|--10--8--10--8--7-|--7h8--7--7p5--5-:--3--2h3p2----------:-----10--8-:
B-|------------------|-----------------:------------5--3h5\-:--3--------:
G-|------------------|-----------------:--------------------:-----------:
D-|------------------|-----------------:--------------------:-----------:
A-|------------------|-----------------:--------------------:-----------:
E-|------------------|-----------------:--------------------:-----------:





E-|--7--8--7h8p7------10/12-:--10--8--10-|--8--7--7--8--7--:------------|
B-|---------------10--------:------------|-----------------:--------8---|
G-|-------------------------:------------|-----------------:--7--9------|
D-|-------------------------:------------|-----------------:------------|
A-|-------------------------:------------|-----------------:------------|
E-|-------------------------:------------|-----------------:------------|





E-|------------7h8p7------------10--:--8--7--:--8--7h8p7------10/12--10-:
B-|--7--8--10---------10--8--7------:--------:------------10------------:
G-|---------------------------------:--------:--------------------------:
D-|---------------------------------:--------:--------------------------:
A-|---------------------------------:--------:--------------------------:
E-|---------------------------------:--------:--------------------------:





E-|--8--10--8--7---:--7h8--7--7\5--5---:--3--2h3p2---------:--------:
B-|----------------:-------------------:------------5--3---:--3/5---:
G-|----------------:-------------------:-------------------:--------:
D-|----------------:-------------------:-------------------:--------:
A-|----------------:-------------------:-------------------:--------:
E-|----------------:-------------------:-------------------:--------:



       piano ~ 10 measures
E-|------------------------:
B-|------------------------:
G-|------------------------:
D-|------------------------:
A-|------------------------:
E-|------------------------:





E-|-12h14--14h15-:-14--15--14--12-----|-------------------------:
B-|--------------:-----------------15-|-13--12------------------:
G-|--------------:--------------------|---------14--12--11--12\-:
D-|--------------:--------------------|-------------------------:
A-|--------------:--------------------|-------------------------:
E-|--------------:--------------------|-------------------------:



E-|------------:------------------:------------------:
B-|----------8-:--7h8p7-----------:---------------8p-:
G-|-9--7--9----:---------7-----7h-:--9p7--9--7h9-----:
D-|------------:------------9-----:------------------:
A-|------------:------------------:------------------:
E-|------------:------------------:------------------:





E-|------------7------8--7--8---:--10--8--6h7-------------------:
B-|--7--10--8-----10------------:--------------8--10-----10h12p-:
G-|-----------------------------:-------------------------------:
D-|-----------------------------:-------------------------------:
A-|-----------------------------:-------------------------------:
E-|-----------------------------:-------------------------------:





E-|----------------15h17--15--15:-14--14p12--12--10--10h|-12-|-10-8-7:
B-|-10--8h10--8--8--------------:-----------------------|----|-------:
G-|-----------------------------:-----------------------|----|-------:
D-|-----------------------------:-----------------------|----|-------:
A-|-----------------------------:-----------------------|----|-------:
E-|-----------------------------:-----------------------|----|-------:





E-|-8--7h8p7-----8--7h-:-8p7-----7----:----------------:----:-----------:
B-|----------10--------:-----10----10-:-8--8/10--10/12-:-7h-:-8p7-------:
G-|--------------------:--------------:----------------:----:------9--7-:
D-|--------------------:--------------:----------------:----:-----------:
A-|--------------------:--------------:----------------:----:-----------:
E-|--------------------:--------------:----------------:----:-----------:





E-|-------10--8-:-7--8--7h8p7------10/12-:-10--8--10-:-8--7--7h8--7--7p5:
B-|----8--------:--------------10--------:-----------:------------------:
G-|-9-----------:------------------------:-----------:------------------:
D-|-------------:------------------------:-----------:------------------:
A-|-------------:------------------------:-----------:------------------:
E-|-------------:------------------------:-----------:------------------:





E-|--5--3--2h3p2--------:-------15--15--15---|--15h17p15--15--15--15---:
B-|---------------5--3h-:--5\3---------------|-------------------------:
G-|---------------------:--------------------|-------------------------:
D-|---------------------:--------------------|-------------------------:
A-|---------------------:--------------------|-------------------------:
E-|---------------------:--------------------|-------------------------:





E-|---15p14--14--12--14p12--10-:
B-|----------------------------:
G-|----------------------------:
D-|----------------------------:
A-|----------------------------:
E-|----------------------------:




E-|--7h8h10--12---:--10--8--7--8--7-------|--------7h8h10--8---:
B-|---------------:------------------10---|--8h10--------------:
G-|---------------:-----------------------|--------------------:
D-|---------------:-----------------------|--------------------:
A-|---------------:-----------------------|--------------------:
E-|---------------:-----------------------|--------------------:





E-|---7--8--7h8p7------10/12---:
B-|----------------10----------:
G-|----------------------------:
D-|----------------------------:
A-|----------------------------:
E-|----------------------------:



E-|--10--8---:--10--8--7--7\5--7---|--7\5--5--3\2------:-----5/7---:----:
B-|----------:---------------------|---------------5---:--7--------:----:
G-|----------:---------------------|-------------------:-----------:----:
D-|----------:---------------------|-------------------:-----------:----:
A-|----------:---------------------|-------------------:-----------:----:
E-|----------:---------------------|-------------------:-----------:----:




         harmonic
E-|-----5--7---:---:-----7~b-:---:--5--5--5/7---:---:--7h8---:--12-----:
B-|--8---------:---:---------:---:--------------:---:--------:---------:
G-|------------:---:---------:---:--------------:---:--------:---------:
D-|------------:---:---------:---:--------------:---:--------:---------:
A-|------------:---:---------:---:--------------:---:--------:---------:
E-|------------:---:---------:---:--------------:---:--------:---------:








__________________________________________________

Almost there ...

Sign in to get your own page with links to favourite songs and more. You are just one click away...

Login with Facebook Login with Google