Ivy Leakage by Oliver Houston

Ivy Leakage tab by Oliver Houston

Guitar tabs

  • Capo on 2nd
Oliver Houston - Ivy Leakage

Tuning: DAEAC#E



Intro & Verse: 0:00

E |-x-------------x---x---x-x---x--0------------------------------------------|
C#|-0-------------x---0---x-0---0--0------------------------------------------|
A |-4b5b4b5b4b5b4-x---0---x-0---0--0------------------------------------------|
E |-0-------------x---x---x-x---x--0------------------------------------------| x3
A |-0-------------x---9---x-7---7--0------------------------------------------|
D |-x-------------x---0---x-0---0--0------------------------------------------|
                                        Both x4
E |-x-0---0---0-x-0---0-------------------------------------------------------|
C#|-x-0---0---0-x-0---0-------------------------------------------------------|
A |-x-0---0---0-x-0---0-------------------------------------------------------|
E |-x-4---4---4-x-4---4-------------------------------------------------------|
A |-x-x---x---x-x-x---x-------------------------------------------------------|
D |-x-2---2---2-x-2---2-------------------------------------------------------|

Bridge: 0:41

The 12* is a harmonic.

E |-x--x------------------12*-----0--0----------------0-----------------------|
C#|-0--0------------------12*-----0--0----------------0-----------------------|
A |-0--0----------0h7h9p0-12*-----0--0----------0-----------------------------|
E |-x--x----0h7h9---------12*-----4--4----0h2/4---4/7-------------------------|
A |-9--9------------------12*-----x--x----------------------------------------|
D |-0--0------------------12*-----2--2----------------------------------------|

E |-x--x-x----------------12*-----0--0-0--------------0-----------------------|
C#|-0--0-0----------------12*-----0--0-0----------------0---------------------|
A |-0--0-0--------0h7h9p0-12*-----0--0-0--------0-----------------------------|
E |-x--x-x--0h7h9---------12*-----4--4-4--0h2/4---4/7-------------------------|
A |-9--9-9----------------12*-----x--x-x--------------------------------------|
D |-0--0-0----------------12*-----2--2-2--------------------------------------|

E |-x--x-x----------------12*-----0--0-0--------------0-----------------------|
C#|-0--0-0----------------12*-----0--0-0--------------0-----------------------|
A |-0--0-0--------0h7h9p0-12*-----0--0-0--------0-----------------------------|
E |-x--x-x--0h7h9---------12*-----4--4-4--0h2/4---4/7-------------------------|
A |-9--9-9----------------12*-----x--x-x--------------------------------------|
D |-0--0-0----------------12*-----2--2-2--------------------------------------|

E |-x--x-x----------------12*-----0--0-0--------------0-----------------------|
C#|-0--0-0----------------12*-----0--0-0----------------0---------------------|
A |-0--0-0--------0h7h9p0-12*-----0--0-0--------0-----------------------------|
E |-x--x-x--0h7h9---------12*-----4--4-4--0h2/4---4/7-------------------------|
A |-9--9-9----------------12*-----x--x-x--------------------------------------|
D |-0--0-0----------------12*-----2--2-2--------------------------------------|

E |-x--x--x-x--x--x-x--x--x-x--x--0-0--0--0-0--0--0-0--0--0-0--0--0-----------|
C#|-0--0--0-0--0--0-0--0--0-0--0--0-0--0--0-0--0--0-0--0--0-0--0--0-----------|
A |-0--0--0-0--0--0-0--0--0-0--0--0-0--0--0-0--0--0-0--0--0-0--0--0-----------|
E |-x--x--x-x--x--x-x--x--x-x--x--0-4--4--4-4--4--4-4--4--4-4--4--0-----------| x3
A |-9--9--9-9--9--9-9--9--9-9--9--0-x--x--x-x--x--x-x--x--x-x--x--0-----------|
D |-0--0--0-0--0--0-0--0--0-0--0--0-2--2--2-2--2--2-2--2--2-2--2--0-----------|

E |-x--x--x-x--x--x-x--x--x-x--x--0-0--0--0-0--0--0-0--0--0-0-----------------|
C#|-0--0--0-0--0--0-0--0--0-0--0--0-0--0--0-0--0--0-0--0--0-0-----------------|
A |-0--0--0-0--0--0-0--0--0-0--0--0-0--0--0-0--0--0-0--0--0-0-----------------|
E |-x--x--x-x--x--x-x--x--x-x--x--0-4--4--4-4--4--4-4--4--4-4-----------------|
A |-9--9--9-9--9--9-9--9--9-9--9--0-x--x--x-x--x--x-x--x--x-x-----------------|
D |-0--0--0-0--0--0-0--0--0-0--0--0-2--2--2-2--2--2-2--2--2-2-----------------|


Chorus: 1:27

On each of these riffs after you've slid up, let the chord ring out.

E |-0---0-0-0-0-x-------------------------------------------------------------|
C#|-0---0-0-0-0-0-------------------------------------------------------------|
A |-4---4-0-0-0-0-------------------------------------------------------------|
E |-0---0-0-4-0-x-------------------------------------------------------------| x3
A |-0---0-0-x-0-2/9-----------------------------------------------------------|
D |-x---x-0-2-0-0-------------------------------------------------------------|

E |-0---0-0-0-0-x-----x-x-x-x-x-x-0-------------------------------------------|
C#|-0---0-0-0-0-0-----0-0-0-0-0-0-0-------------------------------------------|
A |-4---4-0-0-0-0-----0-0-0-0-0-0-0-------------------------------------------|
E |-0---0-0-4-0-x-----x-x-x-x-x-x-0-------------------------------------------|
A |-0---0-0-x-0-2/9---9-9-9-9-7-7-0-------------------------------------------|
D |-x---x-0-2-0-0-----0-0-0-0-0-0-0-------------------------------------------|

E |-0---0-0-0-0-x-------------------------------------------------------------|
C#|-0---0-0-0-0-0-------------------------------------------------------------|
A |-4---4-0-0-0-0-------------------------------------------------------------|
E |-0---0-0-4-0-x-------------------------------------------------------------| x3
A |-0---0-0-x-0-2/9-----------------------------------------------------------|
D |-x---x-0-2-0-0-------------------------------------------------------------|


Outro: 1:57

Basically the same riff as the chorus, but you're strumming a few extra times.

E |-0-0-0-0-0-0-x-----x-x-x-x-x-x-0-------------------------------------------|
C#|-0-0-0-0-0-0-0-----0-0-0-0-0-0-0-------------------------------------------|
A |-4-4-4-0-0-0-0-----0-0-0-0-0-0-0-------------------------------------------|
E |-0-0-0-0-4-0-x-----x-x-x-x-x-x-0-------------------------------------------|
A |-0-0-0-0-x-0-2/9---9-9-9-9-7-7-0-------------------------------------------|
D |-x-x-x-0-2-0-0-----0-0-0-0-0-0-0-------------------------------------------|

E |-0-0-0-0-0-0-x-----x-x-0-x-x-x-x-------------------------------------------|
C#|-0-0-0-0-0-0-0-----0-0-0-0-0-x-x-------------------------------------------|
A |-4-4-4-0-0-0-0-----0-0-0-x-x-7-9-------------------------------------------|
E |-0-0-0-0-4-0-x-----x-x-0-7-9-0-0-------------------------------------------|
A |-0-0-0-0-x-0-2/9---9-9-0-0-0-0-0-------------------------------------------|
D |-x-x-x-0-2-0-0-----0-0-0-x-x-x-x-------------------------------------------|

E |-0-0-0-0-0-0-x-----x-x-x-x-x-x-0-------------------------------------------|
C#|-0-0-0-0-0-0-0-----0-0-0-0-0-0-0-------------------------------------------|
A |-4-4-4-0-0-0-0-----0-0-0-0-0-0-0-------------------------------------------|
E |-0-0-0-0-4-0-x-----x-x-x-x-x-x-0-------------------------------------------|
A |-0-0-0-0-x-0-2/9---9-9-9-9-7-7-0-------------------------------------------|
D |-x-x-x-0-2-0-0-----0-0-0-0-0-0-0-------------------------------------------|

E |-0-0-0-0-0-0-x-----x-x-x---x-x-x---x-x-x-----------------------------------|
C#|-0-0-0-0-0-0-0-----0-0-0---0-0-0---0-0-0-----------------------------------|
A |-4-4-4-0-0-0-0-----0-0-0---0-0-0---0-0-0-----------------------------------|
E |-0-0-0-0-4-0-x-----x-x-x---x-x-x---x-x-x-----------------------------------|
A |-0-0-0-0-x-0-2/9---9-9-7---7-7-9---9-9-9-----------------------------------|
D |-x-x-x-0-2-0-0-----0-0-0---0-0-0---0-0-0-----------------------------------|

E |-0--x-----x-----x-----x----------------------------------------------------|
C#|-0--0-----0-----0-----0----------------------------------------------------|
A |-0--0-----0-----0-----0----------------------------------------------------|
E |-4--x-----x-----x-----x----------------------------------------------------| x4
A |-x--9-----9-----9-----9----------------------------------------------------|
D |-2--0-----0-----0-----0----------------------------------------------------|

E |-0--0----------------------------------------------------------------------|
C#|-0--0----------------------------------------------------------------------|
A |-0--4----------------------------------------------------------------------|
E |-4--0----------------------------------------------------------------------|
A |-x--0----------------------------------------------------------------------|
D |-2--x----------------------------------------------------------------------|


******************************

h = Hammer-on
p = Pull-off
/ = Slide up
b = Bend
* = Harmonic

******************************

Find guitar tabs and chords

A B C D E F G H I J K L M N O P Q R S T U V W X Y Z #