In My Life by Oliver

In My Life bass tab by Oliver

Bass tabs

Tuning: Standard (E A D G)


Tuning: EADG

0:12

G|----------------------------------------------------------------|
D|7-----------7---6-----------6---4-------------------------------|
A|----------------------------------------------------------------|
E|--------------------------------------------5-------------------|

G|7---------------------------------------------------------------|
D|--------------------------------7-----------7---7---------------|
A|----------------5-------------------------------------------7---|
E|----------------------------------------------------------------|

G|----------------------------------------------------------------|
D|7-----------7---6-----------6---4-------------------------------|
A|----------------------------------------------------------------|
E|--------------------------------------------5-------------------|

G|7---------------------------------------------------------------|
D|--------------------------------7-----------7---7---------------|
A|----------------5-----------------------------------------------|
E|----------------------------------------------------------------|

0:35

G|----------------------------------------------------------------|
D|----------------------------------------------------------------|
A|9-----------9---8-----------8---7-----------6-------------------|
E|----------------------------------------------------------------|

G|----------------------------------------------------------------|
D|----------------------------------------------------------------|
A|5---------------8---------------------------------------7---8---|
E|--------------------------------5-----------5---5---------------|

G|----------------------------------------------------------------|
D|----------------------------------------------------------------|
A|9-----------9---8-----------8---7-----------6-------------------|
E|----------------------------------------------------------------|

G|----------------------------------------------------------------|
D|--------------------------------7-----------7---7---------------|
A|5---------------5-------------------------------------------7---|
E|----------------------------------------------------------------|

G|--------------------------------|
D|7-----------7---7---------7-----|
A|------------------------7---7---|
E|--------------------------------|

1:01

G|----------------------------------------------------------------|
D|7-----------7---6-----------6---4-------------------------------|
A|----------------------------------------------------------------|
E|--------------------------------------------5-------------------|

G|7---------------------------------------------------------------|
D|--------------------------------7-----------7---7---------------|
A|----------------5-------------------------------------------7---|
E|----------------------------------------------------------------|

G|----------------------------------------------------------------|
D|7-----------7---6-----------6---4-------------------------------|
A|----------------------------------------------------------------|
E|--------------------------------------------5-------------------|

G|7---------------------------------------------------------------|
D|--------------------------------7-----------7---7---------------|
A|----------------5-----------------------------------------------|
E|----------------------------------------------------------------|

1:24

G|----------------------------------------------------------------|
D|----------------------------------------------------------------|
A|9-----------9---8-----------8---7-----------6-------------------|
E|----------------------------------------------------------------|

G|----------------------------------------------------------------|
D|----------------------------------------------------------------|
A|5---------------8---------------------------------------7---8---|
E|--------------------------------5-----------5---5---------------|

G|----------------------------------------------------------------|
D|----------------------------------------------------------------|
A|9-----------9---8-----------8---7-----------6-------------------|
E|----------------------------------------------------------------|

G|----------------------------------------------------------------|
D|--------------------------------7-----------7---7---------------|
A|5---------------5-------------------------------------------7---|
E|----------------------------------------------------------------|

G|--------------------------------|
D|7-----------7---7---------7-----|
A|------------------------7---7---|
E|--------------------------------|

G|----------------------------------------------------------------|
D|7-----------7---6-----------6---4-------------------------------|
A|------------------------------------------------------------4---|
E|--------------------------------------------5-----------7-------|

G|----------------------------------------------------------------|
D|--------------------------------7-------------------------7-----|
A|5---------------5-----------5-------------------7-------7---7---|
E|----------------------------------------------------------------|

2:00

G|----------------------------------------------------------------|
D|----------------------------------------------------------------|
A|9-----------9---8-----------8---7-----------6-------------------|
E|----------------------------------------------------------------|

G|----------------------------------------------------------------|
D|----------------------------------------------------------------|
A|5---------------8-------------------------------------------8---|
E|--------------------------------5-----------5---5-------5-------|

G|----------------------------------------------------------------|
D|----------------------------------------------------------------|
A|9-----------9---8-----------8---7-----------6-------------------|
E|----------------------------------------------------------------|

G|----------------------------------------------------------------|
D|--------------------------------7-----------7---7---------------|
A|5---------------5-----------------------------------------------|
E|----------------------------------------------------------------|

G|------------------------------------------------|
D|------------------------------------------------|
A|5---------------5-------------------------------|
E|------------------------------------------------|

G|----------------------------------------------------------------|
D|7-----------7---7---------------7-----------7---7---------------|
A|----------------------------7-------------------------------7---|
E|----------------------------------------------------------------|

G|----------------------------------------------------------------|
D|7-----------7---7-----------------------------------------------|
A|----------------------------7-----------------------------------|
E|--------------------------------5-------------------------------|

2:38

G|----------------------------------------------------------------|.
D|7-----------7---6-----------6---4-------------------------------|.
A|------------------------------------------------------------4---|.
E|--------------------------------------------5-----------7-------|.
                                  . x2
G|----------------------------------------------------------------|.
D|--------------------------------7-------------------------7-----|.
A|5-----------5---5-----------5-------------------7-------7---7---|.
E|----------------------------------------------------------------|.

3:01 Until fadeout.

G|----------------------------------------------------------------|
D|7-----------7---6-----------6---4-------------------------------|
A|------------------------------------------------------------4---|
E|--------------------------------------------5-----------7-------|

G|----------------------------------------------------------------|
D|--------------------------------7-------------------------7-----|
A|5-----------5---5-------5-----------------------7-------7---7---|
E|----------------------------------------------------------------|

G|----------------------------------------------------------------|
D|7-----------7---6-----------6---4-------------------------------|
A|------------------------------------------------------------4---|
E|--------------------------------------------5-----------7-------|

G|----------------------------------------------------------------|
D|----------------------------6---7-------------------------7-----|
A|5-----------5---5-------5-----------------------7-------7---7---|
E|----------------------------------------------------------------|

Find guitar tabs and chords

A B C D E F G H I J K L M N O P Q R S T U V W X Y Z #