Log in

One click and you are in

Login with Facebook Login with Google

Why sign up and log in

Guitar Tabs Explorer
Old 97s chords for Question

Guitar chords

Band: Old 97s
Album: Fight Songs

Tabbed by: Brian Tobben

Notes: This is such an awesome song, I'm surprised that no one has
months now and I figured I should contribute to the archive.

The song is played in drop D.

I play the A chord diagramFF and A chord diagramG+G barre chords with my thumb hooked over the low A chord diagramE MajorE
(A chord diagramD MajorD) string, but if you can find an easier way, great.
e-----0-0--00-0----0-0--00-0----0-0--00-0-----------------1-1--11-1---
B-----1-1--11-1----1-1--11-1----1-1--11-1-----------------1-1--11-1---
G-----0-0--00-0----0-0--00-0----0-0--00-0-----------------2-2--22-2---
D-----2-2--22-2----0-0--00-0----2-2--22-2-----------------3-3--33-3---
A--3------------2------------0-------------------0--------3-3--33-3---
D------------------------------------------5--5-----5--3--------------


e-----1-1--11-1----1-1--11-1-----------------0-0--00-0----0-0--00-0---
B-----1-1--11-1----1-1--11-1-----------------1-1--11-1----1-1--11-1---
G-----2-2--22-2----2-2--22-2-----------------0-0--00-0----0-0--00-0---
D-----3-3--33-3----3-3--33-3-----------------2-2--22-2----0-0--00-0---
A-----3-3--33-3----3-3--33-3--------0--2--3------------2--------------
D--2------------0-------------5--5------------------------------------


e-----0-0--00-0----0-0--00-0----1-1--11-1----1-1--11-1----1-1--11-1---
B-----1-1--11-1----1-1--11-1----1-1--11-1----1-1--11-1----1-1--11-1---
G-----0-0--00-0----0-0--00-0----2-2--22-2----2-2--22-2----2-2--22-2---
D-----2-2--22-2----2-2--22-2----3-3--33-3----3-3--33-3----3-3--33-3---
A--0----------------------------3-3--33-3----3-3--33-3----3-3--33-3---
D---------------5------------3------------2------------0--------------

e-----------------0-0--00-0----0-0--00-0-----0-0--00-0----0-0--00-0---
B-----------------1-1--11-1----1-1--11-1-----1-1--11-1----1-1--11-1---
G-----------------0-0--00-0----0-0--00-0-----0-0--00-0----0-0--00-0---
D-----------------2-2--22-2----0-0--00-0-----2-2--22-2----2-2--22-2---
A--------0--2--3------------2-------------0---------------------------
D--5--5------------------------------------------------5--------------


e-----1-1--11-1----1-1--11-1----1-1--11-1----------------1-1--11-1----
B-----1-1--11-1----1-1--11-1----1-1--11-1----------------1-1--11-1----
G-----2-2--22-2----2-2--22-2----2-2--22-2----------------2-2--22-2----
D-----3-3--33-3----3-3--33-3----3-3--33-3----------------3-3--33-3----
A-----3-3--33-3----3-3--33-3----3-3--33-3-------0--------3-3--33-3----
D--3------------2------------0------------5--5-----5--3---------------


e-----3-3--33-3-----0-0--00-0----1-1--11-1----1-1--11-1----3-3--33-3--
B-----3-3--33-3-----1-1--11-1----3-3--33-3----1-1--11-1----3-3--33-3--
G-----4-4--44-4-----0-0--00-0----3-3--33-3----2-2--22-2----4-4--44-4--
D-----5-5--55-5-----2-2--22-2----3-3--33-3----3-3--33-3----5-5--55-5--
A-----5-5--55-5--3------------1---------------3-3--33-3----5-5--55-5--
D--5---------------------------------------3------------5-------------


e-----0-0--00-0----1-1--11-1----1-1--11-1-----0-0--00-0----1-1--11-1--
B-----1-1--11-1----3-3--33-3----1-1--11-1-----1-1--11-1----1-1--11-1--
G-----0-0--00-0----3-3--33-3----2-2--22-2-----2-2--22-2----2-2--22-2--
D-----2-2--22-2----3-3--33-3----3-3--33-3-----2-2--22-2----3-3--33-3--
A--3------------1---------------3-3--33-3--0---------------3-3--33-3--
D----------------------------3--------------------------3-------------


                  play this after the second time
e---------------| ----0-0--00-0----0-0--00-0----0-0--00-0----0-0--00-0-
B-------------*-| ----1-1--11-1----1-1--11-1----1-1--11-1----1-1--11-1-
G---------------| ----0-0--00-0----0-0--00-0----0-0--00-0----0-0--00-0-
D---------------| ----2-2--22-2----0-0--00-0----2-2--22-2----2-2--22-2-
A--------0--2-*-| -3------------2------------0-------------------------
D--5--5---------| ----------------------------------------5------------


e-----1-1--11-1----3-3--33-3----0-0--00-0----0-0--00-0----0-0--00-0----
B-----1-1--11-1----3-3--33-3----1-1--11-1----1-1--11-1----1-1--11-1----
G-----2-2--22-2----4-4--44-4----0-0--00-0----0-0--00-0----0-0--00-0----
D-----3-3--33-3----5-5--55-5----2-2--22-2----0-0--00-0----2-2--22-2----
A-----3-3--33-3----5-5--55-5-3------------2------------0---------------
D--3------------5------------------------------------------------------


e-----0-0--00-0----1-1--11-1---3----0-
B-----1-1--11-1----1-1--11-1---3----1-
G-----0-0--00-0----2-2--22-2---4----0-
D-----2-2--22-2----3-3--33-3---5----2-
A------------------3-3--33-3---5----3-
D--5------------3------------5--------


That's about it. just listen to the song, and it's easy to figure out
where the words come in.  If anyone has any corrections or comments,
send them to me at sleepyt09@yahoo.com
Have fun,
Brian

Almost there ...

Sign in to get your own page with links to favourite songs and more. You are just one click away...

Login with Facebook Login with Google