Log in

One click and you are in

Login with Facebook Login with Google

Why sign up and log in

Guitar Tabs Explorer
Ok Go tabs for Do what you want

Guitar tabs

Title	: Do What You Want
Artist	: OK Go
Album	: Oh No (2005)

Tuning	: Standard (E,A,D,G,B,E)

Not sure about the chorus but the rest are pretty much 99.9% correct. =D

Intro

|-----------------------------------------------------------------------|
|--|                       [x2]                          |--------------|
|------------------------------------------------------------9---7-7-7--|
|------------------------------------------------------------9---7-7-7--|
|------------------------9-8-7--x-7--7-5-4-------------------7---5-5-5--|
|--7--7--7-5-4-2--x-2--2-------------------7--x-7--7-5--5---------------|


Verse

|---------------------------------------------------------------------------------|
|--|                       [x2]                          |---9--11--9--11--14-14--|
|------------------------------------------------------------9--11--9--11--14-14--|
|------------------------------------------------------------9--11--9--11--14-14--|
|------------------------9-8-7--x-7--7-5-4-------------------7--9---7--9---12-12--|
|--7--7--7-5-4-2--x-2--2-------------------7--x-7--7-5--5-------------------------|


Chorus

   A chord diagramBB    A chord diagramD#D#   A chord diagramE MajorE    A chord diagramC#C#
|--7----6----7----4---|
|--7----8----9----6---|
|--8----8----9----6---|
|--9----8----9----6---| [x2]
|--9----6----7----4---|
|--7------------------|

|--5-5--5-5--5-5--5-5--5-5-5-5--7---|
|--5-5--5-5--5-5--5-5--5-5-5-5--9---|
|--6-6--6-6--6-6--6-6--6-6-6-6--9---|
|--7-7--7-7--7-7--7-7--7-7-7-7--9---|
|--7-7--7-7--7-7--7-7--7-7-7-7--7---|
|--5-5--5-5--5-5--5-5--5-5-5-5------|

Fill

|------------------------------------------------------------|
|------------------------------------------------------------|
|------------------------------------------------------------|
|------------------------------------------------------------|
|------------------------9-8-7--x-7--7-5-4-------------------|
|--7--7--7-5-4-2--x-2--2-------------------7--x-7--7-5--5----|

|---------------------------------------------x----------------|
|---------------------------------------------x----------------|
|---------------------------------------------x--(strike this -|
|---------------------------------------------7-- a few times)-|
|------------------------9-8-7--x-7--7-5-4----x----------------|
|--7--7--7-5-4-2--x-2--2-------------------7--x----------------|


Verse

|---------------------------------------------------------------------------------|
|--|                       [x2]                          |---9--11--9--11--14-14--|
|------------------------------------------------------------9--11--9--11--14-14--|
|------------------------------------------------------------9--11--9--11--14-14--|
|------------------------9-8-7--x-7--7-5-4-------------------7--9---7--9---12-12--|
|--7--7--7-5-4-2--x-2--2-------------------7--x-7--7-5--5-------------------------|

|--x--|
|--x--|
|--x--| Somewhere in the middle of the verse this thing comes in.
|--7--|
|--x--|
|--x--|


Chorus

   A chord diagramBB    A chord diagramD#D#   A chord diagramE MajorE    A chord diagramC#C#
|--7----6----7----4---|
|--7----8----9----6---|
|--8----8----9----6---|
|--9----8----9----6---| [x2]
|--9----6----7----4---|
|--7------------------|


Solo

Guitar I

|--12b14r12------12b14r12--------12b14r12------12b14r12--------12b14r12------12b14r12--15b17~-|
|----------------------------11----------------------------11---------------------------------|
|-----------11~----------11--------------11~----------11--------------11~------------------|
|---------------------------------------------------------------------------------------------|
|---------------------------------------------------------------------------------------------|
|---------------------------------------------------------------------------------------------|

Guitar II

|---------------------------------------------------------------------------------------------|
|---------------------------------------------------------------------------------------------|
|-----------------------------9-----------------------------9---------------------------------|
|--4-------------2------------9--4-------------2------------9--4-------------2----------------|
|--4-------------2------------7--4-------------2------------7--4-------------2----------------|
|--2-------------0---------------2-------------0---------------2-------------0----------------|


AFTER THAT. Guitar II :

|--7----------------------------------7-------5--|
|--7--x-x--9--11--x-x--14--9--x-x--7--7--x-x--5--|
|--8--x-x--9--11--x-x--14--9--x-x--7--8--x-x--6--|
|--9--x-x--9--11--x-x--14--9--x-x--7--9--x-x--7--| [x4]
|--9-------7--9--------12--7-------5--9-------7--|
|--7----------------------------------7-------5--|

Guitar I comes in with this after ^^^ is played the third time.

|------------------------------------------------------------|
|------------------------------------------------------------|
|------------------------------------------------------------|
|------------------------------------------------------------|
|------------------------9-8-7--x-7--7-5-4-------------------|
|--7--7--7-5-4-2--x-2--2-------------------7--x-7--7-5--5----|


Final bit.

Guitar I

|------------------------------------------------------------|
|------------------------------------------------------------|
|------------------------------------------------------------|
|------------------------------------------------------------| [x2]
|------------------------9-8-7--x-7--7-5-4-------------------|
|--7--7--7-5-4-2--x-2--2-------------------7--x-7--7-5--5----|

|-----------------12b14r12--------12b14r12-----------------------12b14r12--------12b14r12-12b14.5r12b14r12---|
|--11b12-12-[x14]----------10-12-----------10-12--11b12-12-[x14]----------10-12------------------------------|
|-------(^ gradually release)--------------------------(^ gradually release)---------------------------------|
|------------------------------------------------------------------------------------------------------------|
|------------------------------------------------------------------------------------------------------------|
|------------------------------------------------------------------------------------------------------------|

Guitar II

|--7-------------------------7----5--|
|--7----9--11----14--9----7--7----5--|
|--8----9--11----14--9----7--8----6--|
|--9----9--11----14--9----7--9----7--| [x4]
|--9----7--9-----12--7----5--9----7--|
|--7-------------------------7----5--|


End with

|--5-5--5-5--5-5--5-5--5-5-5-5--7---|
|--5-5--5-5--5-5--5-5--5-5-5-5--9---|
|--6-6--6-6--6-6--6-6--6-6-6-6--9---|
|--7-7--7-7--7-7--7-7--7-7-7-7--9---|
|--7-7--7-7--7-7--7-7--7-7-7-7--7---|
|--5-5--5-5--5-5--5-5--5-5-5-5------|

Other versions of Do What You Want

Do what you wantChords

Almost there ...

Sign in to get your own page with links to favourite songs and more. You are just one click away...

Login with Facebook Login with Google