Log in

One click and you are in

Login with Facebook Login with Google

Why sign up and log in

Guitar Tabs Explorer
The Ojays bass tabs for Brandy

Bass tabs

o'jays/brandy.btab

Basstab by Jan Bjorklund, Finland;
jani_bjorklund@yahoo.se
You are welcome to request for basstabs!
Bienvenidos a pedirme transcripciones para el bajo!
Fingering and positions as suggested by TablEdit.

TablEdited by Jan Bjorklund for John

Tuning : E A D G 	Time Signature: 4/4

 |    |    |    |    |    |    |    |
|10--------------9---------------|7-------------------------------|
|--------------------------------|------------10------------------|
|--------------------------------|--------------------------------|
|--------------------------------|--------------------------------|

 |    |    |    |    |    |    |    |
|--------------------------------|--------------------------------|
|8---------------7---------------|--------------------------------|
|--------------------------------|10------------------------------|
|--------------------------------|----------------8---------------|

 |    |    |    |    |    |    |    |
|10--------------9---------------|7-------------------------------|
|--------------------------------|------------10----------------7-|
|--------------------------------|----------------------------8---|
|--------------------------------|--------------------------------|

 |    |    |    |    |    |    |    |
|--------------------------------|--------------------------------|
|8---------------7---------------|----------------10--------/---4-|
|--------------------------------|10------------------------------|
|--------------------------------|--------------------------------|

 |    |    |    |    |    |    |    |
|--------------------------------|--------------------------------|
|3---3-----------2---2-----------|0---0---0-----------------------|
|--------------------------------|------------3-----------------0-|
|--------------------------------|----------------------------1---|

 |    |    |    |    |    |    |    |
|--------------------------------|--------------------------------|
|--------------------------------|--------------------------------|
|1---1-----------0---0-----------|3---3---3---3---3---3---3---3---|
|--------------------------------|--------------------------------|

 |    |    |    |    |    |    |    |
|--------------------------------|--------------------------------|
|--------------------------------|3---------------2---------------|
|3---3---3---3---3---------------|--------------------------------|
|--------------------------------|--------------------------------|

 |    |    |    |    |    |    |    |
|--------------------------------|0-------------------------------|
|0-------------------------------|--------------------------------|
|------------3-------------------|--------------------------------|
|--------------------------------|--------------------------------|

 |    |    |    |    |    |    |    |
|2-----2-----0-------------------|--------------------------------|
|--------------------------------|3---------------2---2-----------|
|--------------------3-----------|--------------------------------|
|--------------------------------|--------------------------------|

 |    |    |    |    |    |    |    |
|--------------------------------|--------------------------------|
|0-------------------------------|--------------------------------|
|------------3-------------------|1---------------0---------------|
|--------------------------------|--------------------------------|

 |    |    |    |    |    |    |    |
|--------------------------------|--------------------------------|
|--------------------------------|--------------------------------|
|--------------------------------|3---------------3---------------|
|3-------------------------------|--------------------------------|

 |    |    |    |    |    |    |    |
|--------------------------------|--------------------------------|
|--------------------------------|--------------------------------|
|3---------------3---3-----------|3---------------3---------------|
|--------------------------------|--------------------------------|

 |    |    |    |    |    |    |    |
|--------------------------------|--------------------------------|
|--------------------------------|--------------------------------|
|3-------------------3---3---1---|0---------------1-------0-------|
|--------------------------------|--------------------------------|

 |    |    |    |    |    |    |    |
|--------------------------------|--------------------------------|
|--------------------------------|--------------0-----------------|
|----------------0---0---------0-|------------1---3---3---3---3---|
|3---3-----------------------1---|3-------------------------------|

 |    |    |    |    |    |    |    |
|--------------------------------|--------------------------------|
|--------------------------------|--------------------------------|
|3---3---3---1---0---------------|1-------0-----------------------|
|--------------------------------|----------------3---3-----------|

 |    |    |    |    |    |    |    |
|--------------------------------|--------------------------------|
|------------------------------0-|--------------------------------|
|0-------------0-------------1---|3---3---3---3---3---3---3---3---|
|------------1---3---------------|--------------------------------|

 |    |    |    |    |    |    |    |
|--------------------------------|--------------------------------|
|--------------------------------|3---3-----------2---2-----------|
|3-------------------------------|--------------------------------|
|--------------------------------|--------------------------------|

 |    |    |    |    |    |    |    |
|--------------------------------|--------------------------------|
|0-------------------------------|--------------------------------|
|------------3-------------------|--------------------------------|
|--------------------------------|3---3-------------------3-------|

 |    |    |    |    |    |    |    |
|--------------------------------|--------------------------------|
|--------------------------------|3---3-----------2---2-----------|
|0-----0-------------3-----------|--------------------------------|
|------------3-------------------|--------------------------------|

 |    |    |    |    |    |    |    |
|--------------------------------|--------------------------------|
|0-----2-3-----------------------|--------------------------------|
|------------3-------0-----------|1---1-----------0---0-----------|
|----------------------------1---|--------------------------------|

 |    |    |    |    |    |    |    |
|--------------------------------|--------------------------------|
|--------------------------------|--------------------------------|
|--------------------------------|3---------------3---------------|
|3---3-------3-------------------|--------------------------------|

 |    |    |    |    |    |    |    |
|--------------------------------|--------------------------------|
|--------------------------------|--------------------------------|
|3---------------3---3-----------|3---------------3---------------|
|--------------------------------|--------------------------------|

 |    |    |    |    |    |    |    |
|--------------------------------|--------------------------------|
|--------------------------------|--------------------------------|
|3-------------------3---3---1---|0---------------1-------0-------|
|--------------------------------|--------------------------------|

 |    |    |    |    |    |    |    |
|--------------------------------|--------------------------------|
|--------------------------------|--------------0-----------------|
|----------------0-------------0-|------------1---3---3---3---3---|
|3---------------------------1---|3-------------------------------|

 |    |    |    |    |    |    |    |
|--------------------------------|--------------------------------|
|--------------------------------|--------------------------------|
|3---3---3---1---0---------------|1-------0-----------------------|
|--------------------------------|----------------3---------------|

 |    |    |    |    |    |    |    |
|--------------------------------|--------------------------------|
|------------------------------0-|--------------------------------|
|0---0---------0-------------1---|3---3---3---3---3-------3---3-1-|
|------------1---3-------3-------|--------------------------------|

 |    |    |    |    |    |    |    |
|--------------------------------|--------------------------------|
|--------------------------------|--------------------------------|
|0---------------1-------0-------|----------------0-------------0-|
|--------------------------------|3---------------------------1---|

 |    |    |    |    |    |    |    |
|--------------------------------|--------------------------------|
|--------------0-----------------|--------------------------------|
|------------1---3---3---3---3---|3---3---3-/-1---0---------------|
|3-------------------------------|--------------------------------|

 |    |    |    |    |    |    |    |
|--------------------------------|--------------------------------|
|--------------------------------|------------------------------0-|
|1-------0-----------------------|0-------------0-------------1---|
|----------------3---------------|------------1---3---------------|

 |    |    |    |    |    |    |    |
|--------------------------------|--------------------------------|
|--------------------------------|--------------------------------|
|3---3---3---3---3---3---3---3-1-|0---------------1-------0-------|
|--------------------------------|--------------------------------|

 |    |    |    |    |    |    |    |
|--------------------------------|--------------------------------|
|--------------------------------|--------------0-----------------|
|----------------0-------------0-|------------1---3---3---3---3---|
|3---------------------------1---|3-------------------------------|

 |    |    |    |    |    |    |    |
|--------------------------------|--------------------------------|
|--------------------------------|--------------------------------|
|3---3---3---1---0---------------|1-------0-----------------------|
|--------------------------------|----------------3---------------|

 |    |    |    |    |    |    |    |
|--------------------------------|--------------------------------|
|------------------------------0-|--------------------------------|
|0-------------0-------------1---|3---3---3---3---3---3---3---1---|
|------------1---3---------------|--------------------------------|

 |    |    |    |    |    |    |    |
|--------------------------------|--------------------------------|
|--------------------------------|--------------------------------|
|0---------------1-------0-------|----------------0-------------0-|
|--------------------------------|3---------------------------1---|

 |    |    |    |    |    |    |    |
|--------------------------------|--------------------------------|
|--------------0-----------------|--------------------------------|
|------------1---3---3---3---3---|3---3---3---3-1-0---------------|
|3-------------------------------|--------------------------------|

 |    |    |    |    |    |    |    |
|--------------------------------|--------------------------------|
|--------------------------------|------------------------------0-|
|1-------0-----------------------|0-------------0-------------1---|
|----------------3---------------|------------1---3---------------|

 |    |    |    |    |    |    |    |
|--------------------------------|--------------------------------|
|--------------------------------|--------------------------------|
|3---3---3---3---3---3---3---3-1-|0-------------------------------|
|--------------------------------|--------------------------------|

Almost there ...

Sign in to get your own page with links to favourite songs and more. You are just one click away...

Login with Facebook Login with Google