Log in

One click and you are in

Login with Facebook Login with Google

Why sign up and log in

Guitar Tabs Explorer
Oingo Boingo chords for Stay

Guitar chords

Album: Dead Man's Party
Written by: Danny Elfman
Tabbed By: boingo692x@mail.telis.org
Intro

Keyboard
1|--13------8--|


Main Riff
3|-------------------2--------------------2--------|
4|------3-1--1~3-1~3--------3-1-3---1---1-----1-3--|
5|--------------------------------3---3-----3------|
6|--1-1-----------------1-1------------------------|


Chorus
2|--------------------------------2--|
3|------3-----------------3-----1----|
4|----3---3-----4-------3---3--------|
5|--1---------4---4---1-------4------|
6|----------2------------------------|   X 2

2|------------------------------2--|
3|------1---------------1-----1----|
4|----1---1-----4-----1---1--------|
5|------------4---4---------4------|
6|--4-------2-------4--------------|   X 2


Verse Riff 2
Keyboard/Guitar
1|----11-13--15------11-13--11--|
2|--8--------------8------------|


This is the bare bones of the song very simple and straight.  The main riff
is the only pain.  It comes with a little practice but is easy once you get
that fluid sound that Steve uses.

|

Other versions of Stay

Stay (Ver. 2)Chords

Almost there ...

Sign in to get your own page with links to favourite songs and more. You are just one click away...

Login with Facebook Login with Google