Log in

One click and you are in

Login with Facebook Login with Google

Why sign up and log in

Guitar Tabs Explorer
Oingo Boingo tabs for Im so bad

Guitar tabs with lyrics

Album: Oingo Boingo E.P.
Written by: Danny Elfman
Tabbed by: boingo692x@mail.telis.org


It seems like their using a slide, so I tried to tab it out so that it's
possible to play with a slide on your pinky, without detuning the guitar

INTRO(palm muted except on the last two notes) Repeat four times
      e-----------------------------------------------------------------------
      B-----------------------------------------------------------------------
Fig.1 G-------------------------------7-----------------------------7----7\---
      D--------------------------7----7-----------------------------7----7\---
      A-----------3---------5--------------------3--------3----5----5----5\---
      E---4---4--------4--------------------4---------4-----------------------


      e-----------------------------------------------------------------------
      B-----------------------------------------------------------------------
Fig.2 G-----------------------------------------------------------------------
      D-------2----------------------------2----------------------------------
      A---4-------4---0----------------4-------4---0-------0------------------
      E-------------------4---3---2--------------------4----------------------

I can't seem to find my way...                   (this is done with the slide)
      e---4--4----2\1/2\1/2-------4--4----------------------------------------
      B---4--4----2\1/2\1/2-------4--4----------------------------------------
Fig.3 G------------------------------------11\--------------------------------
      D------------------------------------11\--------------------------------
      A-----------------------------------------------------------------------
      E-----------------------------------------------------------------------

Repeat four times, play Fig.2, and do the same thing for the next verse.
Then it plays the intro again.

Late at night...          (play as power chord if you want it to sound fuller)
      e-----------------------------------------------------------------------
      B-----------------------------------------------------------------------
Fig.4 G-----------------------------------------------------------------------
      D-----------------------------------------------------------------------
      A--4--4--4--4--4--4--4--2--0--0--0--0--0--0--2--0-----------------------
      E--------------------------------------------------4--4--4--4--4--4--4--

      e-----------------------------------------------------------------------
      B-----------------------------------------------------------------------
      G-----------------------------------------------------------------------
      D-----------------------------------------------------------------------
      A--4--5--5--5--5--5--5--5--5-----------------------4--5--5--5--5--5--5--
      E-----------------------------4--4--4--4--4--4--4-----------------------

Alley way,...                    (the bassline repeats, and this is the slide)
      e--4/9-----9\5-----4/5\4------4/10-----10\4-----4/10--------------------
      B--4/9-----9\5-----4/5\4------4/10-----10\4-----4/10--------------------
Fig.5 G-----------------------------------------------------------------------
      D-----------------------------------------------------------------------
      A-----------------------------------------------------------------------
      E-----------------------------------------------------------------------

Intro plays again under "I'll get you"

I was born inside a cage...(I've got the bass and guitar tabbed together, and
                            you have to take off the slide for this part.)
      e-----------------------------4--------5-------4--------5---------------
      B-----------------------------5--------5-------5--------5---------------
Fig.6 G-----------------------------6--------6-------6--------6---------------
      D-----------------------------6--------7-------6--------7---------------
      A--------------0--2--4--2--4--4--7-----7--4----4--7-----7---------------
      E--4--4--4--4-----------------------5--5-------------5--5---------------

Never do anything but rage...
      e-----------------------------4--------5-------4--------5---------------
      B-----------------------------5--------5-------5--------5---------------
Fig.7 G-----------------------------6--------6-------6--------6---------------
      D-----------------------------6--------7-------6--------7---------------
      A--2--2--2--2--2--0-----2--4--4--7-----7--4----4--7-----7---------------
      E--------------------4--------------5--5-------------5--5---------------

Although I try so hard...Repeat Fig.6

Love is something...
      e--------------------------------------4--------2-------4--------2---
      B--------------------------------------4--------3-------4--------3---
Fig.8 G--------------------------------------5--------2-------5--------2---
      D--------------------------------------6--1--0--0-------6--1--0--0---
      A--2--2--2--2--2--2--2--2--0-----------6----------------6------------
      E-----------------------------4--2--4--4-----------4----4------------

I take what I need...
      e--------------------------------------------------------------------
      B--------------------------------------------------------------------
Fig.9 G--------------------------------------------------------------------
      D--------------------------------------2-----------------2-----------
      A--2--2--2--2--2--2--2--2--0-----2--4-----4--0--------4-----2--0---0-
      E-----------------------------4-----------------4-3-2------------4---

Then it goes back to the Intro, and the rest of the song follows the same
patterns.

Almost there ...

Sign in to get your own page with links to favourite songs and more. You are just one click away...

Login with Facebook Login with Google