Log in

One click and you are in

Login with Facebook Login with Google

Why sign up and log in

Guitar Tabs Explorer
Oingo Boingo chords for Burn me up

Guitar chords with lyrics

Album: Farewell Halloween 1995
Written by: Danny Elfman
Tabbed by: boingo692x@mail.telis.org

Here's the tab for one of the cooler songs on the Farewell Album.  It
starts with sax.

e-------------------------------------------
B-------2-----------------------2----------
G----------0--------------------------0----
D-------------4---2--4--2----------------
A--4-------------------------4------------
E------------------------------------------
Verse Chords

A chord diagramC#5C#5   A chord diagramG+G   A chord diagramF#F#
---------------------------
---------------------------
-6-------------------------
-6-----5----4------4------
-4-----5----4------4------
-------3----2--0---2--0---


The Chorus is this:
A chord diagramF#F# - open A chord diagramE MajorE - A chord diagramF#F# - open A chord diagramE MajorE - A chord diagramF#F# - open - A chord diagramG+G - A chord diagramF#F#
A chord diagramC#C# - A chord diagramBB - A chord diagramC#C# - A chord diagramBB - A chord diagramD MajorD - A chord diagramC#C# - A chord diagramBB

that's a fairly basic version of the song.

The song would sound especially good on a guitar with a tremolo (Whammy)
bar during the interlude section with the three guitars playing different
bent notes creating a ghostly moaning effect.

Almost there ...

Sign in to get your own page with links to favourite songs and more. You are just one click away...

Login with Facebook Login with Google