Log in

One click and you are in

Login with Facebook Login with Google

Why sign up and log in

Guitar Tabs Explorer
Oh Sees bass tabs for Cooling tower

Bass tabs

Approx 118 BPM


Intro/Verse:
   1   +   2   +   3   +   4   +    1   +   2   +   3   +   4   +
G||---------------------------------------------------|--------------------------------------------------|
D||o-------------12----------------------12-----------|-------------12----------------------12-----------|
A||o-13----13----------------13----13-------13--------|-13----13----------------13----13-------13--------|
E||---------------------------------------------------|--------------------------------------------------|

   1   +   2   +   3   +   4   +    1   +   2   +   3   +   4   +
G|----------------------------------------------------|--------------------------------------------------|
D|---------------12----------------------12-----------|-------------12----------------------12-----------|
A|---12----12----------------12----12-------12--------|-12----12----------------12----12-------12--------|
E|----------------------------------------------------|--------------------------------------------------|

   1   +   2   +   3   +   4   +    1   +   2   +   3   +   4   +
G|----------------------------------------------------|--------------------------------------------------|
D|---------------13----------------------13-----------|-------------13----------------------13-----------|
A|---11----11----------------11----11-------11--------|-11----11----------------11----11-------11--------|
E|----------------------------------------------------|--------------------------------------------------|

   1   +   2   +   3   +   4   +    1   +   2   +   3   +   4   +
G|----------------------------------------------------|-------------------------------------------------||
D|---------------12----------------------12-----------|-------------------------10----11----12---------o||
A|---12----12----------------12----12-------12--------|-12----11----12----13---------------------------o|| x3
E|----------------------------------------------------|-------------------------------------------------||


Chorus:
   1   +   2   +   3   +   4   +    1   +   2   +   3   +   4   +
G|----------------------------------------------------|--------------------------------------------------|
D|---------------12~---------------------12-----------|-------------12~---------------------12-----------|
A|---13----13----------------13----13-------13----13--|-13----13----------------13----13-------13----13--|
E|----------------------------------------------------|--------------------------------------------------|

   1   +   2   +   3   +   4   +    1   +   2   +   3   +   4   +
G|----------------------------------------------------|--------------------------------------------------|
D|---------------12~---------------------12-----------|-------------12~---------------------12-----------|
A|---12----12----------------12----12-------12----12--|-12----12----------------12----12-------12----12--|
E|----------------------------------------------------|--------------------------------------------------|

   1   +   2   +   3   +   4   +    1   +   2   +   3   +   4   +
G|----------------------------------------------------|--------------------------------------------------|
D|---------------13~---------------------13-----------|-------------13~---------------------13-----------|
A|---11----11----------------11----11-------11----11--|-11----11----------------11----11-------11-----11-|
E|----------------------------------------------------|--------------------------------------------------|

   1   +   2   +   3   +   4   +    1   +   2   +   3   +   4   +
G|----------------------------------------------------|--------------------------------------------------|
D|---------------12~---------------------12-----------|-------------------------10----11----12-----------|
A|---12----12----------------12----12-------12--------|-12----11----12----13-----------------------------|
E|----------------------------------------------------|--------------------------------------------------|

   1   +   2   +   3   +   4   +    1   +   2   +   3   +   4   +
G|---------------10~---------------------10-----------|-------------10~---------------------10-----------|
D|---12----12----------------12----12-------12----12--|-12----12----------------12----12-------12----12--|
A|----------------------------------------------------|--------------------------------------------------|
E|----------------------------------------------------|--------------------------------------------------|

   1   +   2   +   3   +   4   +    1   +   2   +   3   +   4   +
G|---------------12~---------------------12-----------|-------------12~---------------------12-----------|
D|---11----11----------------11----11-------11----11--|-11----11----------------11----11-------11----11--|
A|----------------------------------------------------|--------------------------------------------------|
E|----------------------------------------------------|--------------------------------------------------|

   1   +   2   +   3   +   4   +    1   +   2   +   3   +   4   +
G|---------------12~---------------------12-----------|-------------12~---------------------12-----------|
D|---10----10----------------10----10-------10----10--|-10----10----------------10----10-------10----10--|
A|----------------------------------------------------|--------------------------------------------------|
E|----------------------------------------------------|--------------------------------------------------|

   1   +   2   +   3   +   4   +    1   +   2   +   3   +   4   +
G|---------------10~---------------------10~----------|-------------------------------10----11-----------|
D|---11----11----------------11----11-----------------|-11----10----11----12----13-----------------------|
A|----------------------------------------------------|--------------------------------------------------|
E|----------------------------------------------------|--------------------------------------------------|

Bridge:
   1   +   2   +   3   +   4   +    1   +   2   +   3   +   4   +
G|----------------------------------------------------|--------------------------------------------------|
D|----------------8-----------------------8-----------|--------------8-----------------------8-----------|
A|----9-----9-----------------9-----9-----------------|--9-----9-----------------9-----9-----------------|
E|----------------------------------------------------|--------------------------------------------------|

   1   +   2   +   3   +   4   +    1   +   2   +   3   +   4   +
G|----------------------------------------------------|--------------------------------------------------|
D|----------------8-----------------------8-----------|--------------8-----------------------8-----------|
A|----8-----8-----------------8-----8-----------------|--8-----8-----------------8-----8-----------------|
E|----------------------------------------------------|--------------------------------------------------|

   1   +   2   +   3   +   4   +    1   +   2   +   3   +   4   +
G|----------------------------------------------------|--------------------------------------------------|
D|----------------6-----------------------6-----------|--------------6-----------------------6-----------|
A|----7-----7-----------------7-----7-----------------|--7-----7-----------------7-----7-----------------|
E|----------------------------------------------------|--------------------------------------------------|

   1   +   2   +   3   +   4   +    1   +   2   +   3   +   4   +
G|----------------------------------------------------|--------------------------------------------------|
D|----------------8-----------------------8-----------|--------------------------------------------------|
A|----8-----8-----------------8-----8-----------------|--8-----7-----8-----9----11----12----13-----------|
E|----------------------------------------------------|--------------------------------------------------|


Verse:
   1   +   2   +   3   +   4   +    1   +   2   +   3   +   4   +
G||---------------------------------------------------|--------------------------------------------------|
D||o-------------12----------------------12-----------|-------------12----------------------12-----------|
A||o-13----13----------------13----13-------13--------|-13----13----------------13----13-------13--------|
E||---------------------------------------------------|--------------------------------------------------|

   1   +   2   +   3   +   4   +    1   +   2   +   3   +   4   +
G|----------------------------------------------------|--------------------------------------------------|
D|---------------12----------------------12-----------|-------------12----------------------12-----------|
A|---12----12----------------12----12-------12--------|-12----12----------------12----12-------12--------|
E|----------------------------------------------------|--------------------------------------------------|

   1   +   2   +   3   +   4   +    1   +   2   +   3   +   4   +
G|----------------------------------------------------|--------------------------------------------------|
D|---------------13----------------------13-----------|-------------13----------------------13-----------|
A|---11----11----------------11----11-------11--------|-11----11----------------11----11-------11--------|
E|----------------------------------------------------|--------------------------------------------------|

   1   +   2   +   3   +   4   +    1   +   2   +   3   +   4   +
G|----------------------------------------------------|-------------------------------------------------||
D|---------------12----------------------12-----------|-------------------------10----11----12---------o||
A|---12----12----------------12----12-------12--------|-12----11----12----13---------------------------o|| x2
E|----------------------------------------------------|-------------------------------------------------||


Chorus:
   1   +   2   +   3   +   4   +    1   +   2   +   3   +   4   +
G|----------------------------------------------------|--------------------------------------------------|
D|---------------12~---------------------12-----------|-------------12~---------------------12-----------|
A|---13----13----------------13----13-------13----13--|-13----13----------------13----13-------13----13--|
E|----------------------------------------------------|--------------------------------------------------|

   1   +   2   +   3   +   4   +    1   +   2   +   3   +   4   +
G|----------------------------------------------------|--------------------------------------------------|
D|---------------12~---------------------12-----------|-------------12~---------------------12-----------|
A|---12----12----------------12----12-------12----12--|-12----12----------------12----12-------12----12--|
E|----------------------------------------------------|--------------------------------------------------|

   1   +   2   +   3   +   4   +    1   +   2   +   3   +   4   +
G|----------------------------------------------------|--------------------------------------------------|
D|---------------13~---------------------13-----------|-------------13~---------------------13-----------|
A|---11----11----------------11----11-------11----11--|-11----11----------------11----11-------11-----11-|
E|----------------------------------------------------|--------------------------------------------------|

   1   +   2   +   3   +   4   +    1   +   2   +   3   +   4   +
G|----------------------------------------------------|--------------------------------------------------|
D|---------------12~---------------------12-----------|-------------------------10----11----12-----------|
A|---12----12----------------12----12-------12--------|-12----11----12----13-----------------------------|
E|----------------------------------------------------|--------------------------------------------------|

   1   +   2   +   3   +   4   +    1   +   2   +   3   +   4   +
G|---------------10~---------------------10-----------|-------------10~---------------------10-----------|
D|---12----12----------------12----12-------12----12--|-12----12----------------12----12-------12----12--|
A|----------------------------------------------------|--------------------------------------------------|
E|----------------------------------------------------|--------------------------------------------------|

   1   +   2   +   3   +   4   +    1   +   2   +   3   +   4   +
G|---------------12~---------------------12-----------|-------------12~---------------------12-----------|
D|---11----11----------------11----11-------11----11--|-11----11----------------11----11-------11----11--|
A|----------------------------------------------------|--------------------------------------------------|
E|----------------------------------------------------|--------------------------------------------------|

   1   +   2   +   3   +   4   +    1   +   2   +   3   +   4   +
G|---------------12~---------------------12-----------|-------------12~---------------------12-----------|
D|---10----10----------------10----10-------10----10--|-10----10----------------10----10-------10----10--|
A|----------------------------------------------------|--------------------------------------------------|
E|----------------------------------------------------|--------------------------------------------------|

   1   +   2   +   3   +   4   +    1   +   2   +   3   +   4   +
G|---------------10~---------------------10~----------|-------------------------------10----11-----------|
D|---11----11----------------11----11-----------------|-11----10----11----12----13-----------------------|
A|----------------------------------------------------|--------------------------------------------------|
E|----------------------------------------------------|--------------------------------------------------|


Bridge:
   1   +   2   +   3   +   4   +    1   +   2   +   3   +   4   +
G|----------------------------------------------------|--------------------------------------------------|
D|----------------8-----------------------8-----------|--------------8-----------------------8-----------|
A|----9-----9-----------------9-----9-----------------|--9-----9-----------------9-----9-----------------|
E|----------------------------------------------------|--------------------------------------------------|

   1   +   2   +   3   +   4   +    1   +   2   +   3   +   4   +
G|----------------------------------------------------|--------------------------------------------------|
D|----------------8-----------------------8-----------|--------------8-----------------------8-----------|
A|----8-----8-----------------8-----8-----------------|--8-----8-----------------8-----8-----------------|
E|----------------------------------------------------|--------------------------------------------------|

   1   +   2   +   3   +   4   +    1   +   2   +   3   +   4   +
G|----------------------------------------------------|--------------------------------------------------|
D|----------------6-----------------------6-----------|--------------6-----------------------6-----------|
A|----7-----7-----------------7-----7-----------------|--7-----7-----------------7-----7-----------------|
E|----------------------------------------------------|--------------------------------------------------|

   1   +   2   +   3   +   4   +    1   +   2   +   3   +   4   +
G|----------------------------------------------------|--------------------------------------------------|
D|----------------8-----------------------8-----------|--------------8-----------------------8-----------|
A|----8-----8-----------------8-----8-----------------|--8-----8-----------------8-----8-----------------|
E|----------------------------------------------------|--------------------------------------------------|


Outro:
   1   +   2   +   3   +   4   +    1   +   2   +   3   +   4   +
G|----------------------------------------------------|--------------------------------------------------|
D|----------------8-----------------------8-----------|--------------8-----------------------8-----------|
A|----9-----9-----------------9-----9-----------------|--9-----9-----------------9-----9-----------------|
E|----------------------------------------------------|--------------------------------------------------|

   1   +   2   +   3   +   4   +    1   +   2   +   3   +   4   +
G|----------------------------------------------------|--------------------------------------------------|
D|----------------8-----------------------8-----------|--------------8-----------------------8-----------|
A|----8-----8-----------------8-----8-----------------|--8-----8-----------------8-----8-----------------|
E|----------------------------------------------------|--------------------------------------------------|

   1   +   2   +   3   +   4   +    1   +   2   +   3   +   4   +
G|----------------------------------------------------|--------------------------------------------------|
D|----------------6-----------------------6-----------|--------------6-----------------------6-----------|
A|----7-----7-----------------7-----7-----------------|--7-----7-----------------7-----7-----------------|
E|----------------------------------------------------|--------------------------------------------------|

   1   +   2   +   3   +   4   +    1   +   2   +   3   +   4   +
G|----------------------------------------------------|--------------------------------------------------|
D|----------------8-----------------------8-----------|--------------------------------------------------|
A|----8-----8-----------------8-----8-----------------|--8-----7-----8-----9----11----12----13-----------|
E|----------------------------------------------------|--------------------------------------------------|

☠☠☠☠☠☠☠☠☠☠☠☠☠☠☠☠☠☠☠☠☠☠☠☠☠☠☠☠☠☠☠☠☠☠☠☠

| ~  Vibrato
| |o Repeat start
| o| Repeat end

☠☠☠☠☠☠☠☠☠☠☠☠☠☠☠☠☠☠☠☠☠☠☠☠☠☠☠☠☠☠☠☠☠☠☠☠

Almost there ...

Sign in to get your own page with links to favourite songs and more. You are just one click away...

Login with Facebook Login with Google