Log in

One click and you are in

Login with Facebook Login with Google

Why sign up and log in

Guitar Tabs Explorer
The Offspring tabs for Way down the line

Guitar tabs with lyrics

song: way down the line
artist: the offspring
tabbed by muddymascot

x-play palm muted
intro

 A chord diagramD MajorD			         A chord diagramG+G
nothing changes cause it's all the same
     A chord diagramD MajorD				     A chord diagramG+G       am
the world you get's the one you give away
    A chord diagramD MajorD			am
it all just happens again way down the line

(scratch some strings)

e-------------------
B-------------------
G----------5/7-5/7--	x2
D-5/7-5/7--5/7-5/7--
A-5/7-5/7-----------
E-------------------


verse
e---------------------
B---------------------
G-----------5-5/7-5/7-
D-5-5/7-5/7-5-5/7-5/7-
A-5-5/7-5/7-----------
E-3-3/7-5/7-----------


verse part 2 (``an angry man ...``)
e----------------|    -------------------
B----------------|    -------------------
G-7xxxxxx--------| x2 -7xxxxxx-----------
D-7xxxxxx-5xxxxxx|    -7xxxxxx-5xxx-7xxx-
A-5xxxxxx-5xxxxxx|    -5xxxxxx-5xxx-7xxx-
E---------3xxxxxx|     --------3xxx-5xxx-

chorus like the intro chords plus
A chord diagramD MajorD
A chord diagramD MajorD				       A chord diagramG+G
and all the things you learn when you're a kid
A chord diagramD MajorD			        A chord diagramG+G       am
you fuck up just like your parents did
A chord diagramD MajorD			am
it all just happens again way down the line


verse 2 like verse 1


bridge (``and welfare mums have kids on welfare ...``)
e----------------------------------
B----------------------------------
G-10-(x8)--12-(x8)-5/7-5/7--5/7-5/7
D-10-------12------5/7-5/7--5/7-5/7 x2
A--8-------10----------------------
E----------------------------------


bridge part 2 (``you know it's never gonna end ...``)
e---------------------------------------------
B---------------------------------------------
G-10(x8)-7(x8)-10(x8)-7(x8)-10(x8)-12-12-14-14
D-10-----7-----10-----7-----10-----12-12-14-14
A--8-----5------8-----5------8-----10-10-12-12
E---------------------------------------------
the rythm might be off the whole bridge


chorus like before


solo
well, i haven't got it yet, but i just play something
on the D-chord that sounds good

this should be pretty accurate

Almost there ...

Sign in to get your own page with links to favourite songs and more. You are just one click away...

Login with Facebook Login with Google