Log in

One click and you are in

Login with Facebook Login with Google

Why sign up and log in

Guitar Tabs Explorer
The Offspring tabs for Want you bad

Guitar tabs with lyrics

Album: Conspiracy of One

Tabbed by Nate Underland and Ray Chawke.
Standard Tuning

PM = Palm mute
~ = ring out

Intro A chord diagramA augmentedA
e-------------------------|
B-------------------------|
G--9------------5------9--|
D--9--9-9--7-7--5---9--9--|
A--7--9-9--7-7--3---9--7--|
E-----7-7--5-5------7-----|


Intro A chord diagramBB
e------------|
B------------|
G---9-9-9-9--|
D---9-9-9-9--|
A---7-7-7-7--|
E------------|
  \Palm Mute/


Verse A chord diagramA augmentedA

NOTE: ***PM12 = play palm muted 12 times***
e-------------------------|
B-------------------------|
G---9--9--9-/-6-/---------|
D---9--9-9-/-6-/---9--9--|
A---7--7--7-/-4-/---9--9--|
E---------------/---7--7--|
       |          |         |
     PM12       PM12      PM12

First Ending      Second Ending
e-----------|     e----------------------------------|
B-----------|     B----------------------------------|
G--------8--|     G--------------------------8-8--8--|
D--7-6-7-8--|     D--7-7--7--6-6--6--7-7--7--8-8--8--|
A--7-6-7-6--|     A--7-7--7--6-6--6--7-7--7--6-6--6--|
E--5-4-5----|     E--5-5--5--4-4--4--5-5--5----------|
                     \PM/    \PM/    \PM/    \PM/


NOTE: If you cannot do the palm muting in the second ending, it sounds fine
if you just play muted dead strings.


Verse A chord diagramBB
e--------------------------------------------------------|
B--------------------------------------------------------|
G--------------------------7-7-7-7-7---9-9-9-9-9-9-9-9---|
D--5-5-5-5-5--7-7-7-7-7-7--7-7-7-7-7---9-9-9-9-9-9-9-9---|
A--5-5-5-5-5--7-7-7-7-7-7--5-5-5-5-5---7-7-7-7-7-7-7-7---|
E--3-3-3-3-3--5-5-5-5-5-5--------------------------------|


Chorus
e------------------|
B------------------|
G--9-----6---------|
D--9-----6----9----|
A--7-----4----9----|
E-------------7----|
   |     |    |
  11x   11x  11x


Verse A chord diagramC majorC
e---8-----8-----8~----8~-----|
B------7-----------7~--------|
G------------8-----------8~--|
D----------------------------|
A----------------------------|
E----------------------------|
 (barely place finger on the string and then lift to get the sound FX)


Solo (figure out the picking yourself; it's too much to write in)
e--------------------------------|
B--------------------------------|
G--------------------------------|
D--------------------------6--9--|
A--6--4-----7--6--4--7--9--------|
E--------7-----------------------|


Third Ending
e--------------|
B--------------|
G------12-12---|
D--7-7-12-12---|
A--7-7~10-12---|
E--5-5---------|


Alright people this is my second tab so please feel free to tell me if ive
made mistakes. Theres no real need to give u a road map as u probably know
the song already & right ? If u do need 1 , email me.

Other versions of Want You Bad

Want you badChords

Almost there ...

Sign in to get your own page with links to favourite songs and more. You are just one click away...

Login with Facebook Login with Google