Log in

One click and you are in

Login with Facebook Login with Google

Why sign up and log in

Guitar Tabs Explorer
The Offspring chords for Want you bad

Guitar chords

Album: Conspiracy of One
As tabbed by Joe Muggah

m = palm mute
Intro                  Fill 1
e--------------------|---------------------------------
B--------------------|---------------------------------
G-9------------6-4---|-9-9m----------------------------
D-9--9-9--7-7--6-4---|-9-9m-(x18)----------------------
A-7--9-9--7-7--4-2---|-7-7m----------------------------
E----7-7--5-5--------|---------------------------------


Verse
e------------------------------------------------------
B------------------------------------------------------
G-9-9m-------9--6-6m-------6--4-4m-------4-------------
D-9-9m-(x12)-9--6-6m-(x12)-6--4-4m-(x12)-4-------------
A-7-7m-------7--4-4m-------4--2-2m-------2-------------
E------------------------------------------------------
("If you could only...")

(continued)        end on
e----------------|-------------------------------------
B----------------|-------------------------------------
G----------------|-------------------------------------
D----------------|-7m-7m-7--6m-6m-6--7m-7m-7--9m-9m-9--
A-4---2---4---6--|-7m-7m-7--6m-6m-6--7m-7m-7--9m-9m-9--
E-5---4---5---7--|-5m-5m-5--4m-4m-4--5m-5m-5--7m-7m-7--


Pre-Chorus
e------------------------------------------------------
B------------------------------------------------------
G-----------6------9----------------6------4-x---------
D-----------6-(x6)-9-(x6)-----------6-(x6)-4-x-(x6)----
A--4----6---4------7-------4----6---4------2-x---------
E-5-5--7-7----------------5-5--7-7---------------------
(Your one vice...")

Pre-Bridge A chord diagramA augmentedA (Guitar 1)	  A chord diagramBB (Guitar 2)
e-----------------------|--19--------------------------
B-----------------------|-------19---------------------
G----4------------------|------------16----------------
D----4--(let ring)------|------------------------------
A----2------------------|------------------------------
E-----------------------|------------------------------

Bridge A chord diagramA augmentedA (Guitar 1, clean and let ring)
e-2-----0-----7-----2-----2-----0-----7-----2----------
B-4-----2-----9-----4-----4-----2-----9-----4----------
G-4-----2-----9-----4-----4-----2-----9-----4----------
D-4-----2-----9-----4-----4-----2-----9-----4----------
A-2-----0-----7-----2-----2-----0-----7-----2----------
E------------------------------------------------------
("Don't get me wrong...")


Bridge A chord diagramBB (Guitar 2, let ring)
e------------19-----------------------19---------------
B------------------------------------------------------
G-16---------------16-----16----------------16---------
D------------------------------------------------------
A------------------------------------------------------
E------------------------------------------------------


Solo A chord diagramA augmentedA (Guitar 1)
e------------------------------------------------------
B------------------------------------------------------
G-8--------6--------4-------9-------8------------------
D-x-(x10)--x-(x10)--x-(x6)--x-(x6)--x-(x10)------------
A-6--------4--------2-------7-------6------------------
E------------------------------------------------------

(continued)
e------------------------------------------------------
B------------------------------------------------------
G-6--------9-------11-------13-------16----------------
D-x-(x10)--x-(x6)---x-(x6)---x-(x6)---x-(x6)-----------
A-4--------7--------9-------11-------14----------------
E------------------------------------------------------


Solo A chord diagramBB (Guitar 2)
e------------------------------------------------------
B------------------------------------------------------
G------------------------------------------------------
D----------------------------------------------6-------
A-6-(x10)--4-(x10)--2-(x10)--6-(x10)--4-(x10)--7-(x24)-
E-7--------5--------4--------7--------5--------0-------

Fill 2
e------------------------------------------------------
B------------------------------------------------------
G----------14------------------------------------------
D-7-(x12)--14-(x12)------------------------------------
A-7--------12------------------------------------------
E-5----------------------------------------------------


Intro
Fill 1

Verse

Pre-Chorus

Chorus

Verse

Pre-Chorus

Chorus

Intro
Pre-Bridge A, A chord diagramBB

Bridge A, A chord diagramBB

Solo A, A chord diagramBB

Chorus
Fill 2

Intro


A chord diagramA augmentedA pop-punk song.

Other versions of Want You Bad

Want you badTabs

Almost there ...

Sign in to get your own page with links to favourite songs and more. You are just one click away...

Login with Facebook Login with Google