Log in

One click and you are in

Login with Facebook Login with Google

Why sign up and log in

Guitar Tabs Explorer
The Offspring tabs for The kids arent alright

Guitar tabs

Offspring - The Kids Aren't Alright


Palm Mute = ^
Slide = /
Vibrato = v
Bend = b
Release = r
Pull-off = p
Riff 1:
|--------------------|--------------------|--------------------|
|--------------------|--------------------|--------------------|
|----6-6----5-5-5-5-6|----6-6----5-5-5-5-6|----6-6----5-5-5-5-6|
|8-8-8-8--8-8-8-8-8-8|4-4-4-4--4-4-4-4-4-4|6-6-6-6--6-6-6-6-6-6|
|--------------------|--------------------|--------------------|
|--------------------|--------------------|--------------------|
 ^ ^      ^           ^ ^      ^           ^ ^      ^
|---------------------------|
|---------------------------|
|----8------6----5-5-5-5-5-6|
|6-6-6--6-6-6--6-6-6-6-6-6-6|
|---------------------------|
|---------------------------|
 ^ ^    ^ ^    ^


Riff 2:
|---------|---------|---------|----------|
|---------|---------|---------|----------|
|---------|---------|---------|----------|
|---------|---------|---------|----------|
|-1-1/3-4-|-----3-4-|---1-3-4-|-/6-4-3-4-|
|---------|-2-2-----|-4-------|----------|


Riff 3:
|-------------------------------|-------------------------------|
|-------------------------------|-------------------------------|
|-3-----------------------------|-------------------------------|
|-3-----------------------------|-6/4---------------------------|
|-1-1-1-1--1-1-1-1-1-1-1-1-1-1-|-6/4---------------------------|
|-------------------------------|-4/2-2-2-2-2-2-2-2-2-2-2-2-2-2-|
    ^ ^ ^ ^ ^ ^ ^ ^ ^ ^ ^ ^ ^ ^       ^ ^ ^ ^ ^ ^ ^ ^ ^ ^ ^ ^ ^
|-----------------------------------|---------------------------------|
|-----------------------------------|---------------------------------|
|-----6-----------------------------|-6/------------------------------|
|-4/--6-----------------------------|-6/--6---------------------------|
|-4/--4-4-4-4-4-4-4-4-4-4-4-4-4-4-4-|-4/--6---------------------------|
|-2/--------------------------------|-----4-4-4-4-4-4-4-4-4-4-4-4-4-4-|
        ^ ^ ^ ^ ^ ^ ^ ^ ^ ^ ^ ^ ^ ^         ^ ^ ^ ^ ^ ^ ^ ^ ^ ^ ^ ^ ^


Riff 4:
|------------------------|------------------------|
|------------------------|-7--7-7-7--7--7-7-7-7-7-|
|-3--3-3-3--3--3-3-3-3-3-|-6--6-6-6--6--6-6-6-6-6-|
|-3--3-3-3--3--3-3-3-3-3-|-4--4-4-4--4--4-4-4-4-4-|
|-1--1-1-1--1--1-1-1-1-1-|------------------------|
|------------------------|------------------------|

|------------------------|------------------------|
|------------------------|------------------------|
|-6--6-6-6--6--6-6-6-6-6-|------------------------|
|-6--6-6-6--6--6-6-6-6-6-|-6--6-6-6--6--6-6-6-6-6-|
|-4--4-4-4--4--4-4-4-4-4-|-6--6-6-6--6--6-6-6-6-6-|
|------------------------|-4--4-4-4--4--4-4-4-4-4-|


Riff 5:
|-----------|---------|-4------6-------9--------11------|
|-----------|---------|-7b(9)--9b(11)--12b(14)--14b(16)-|
|-----------|---------|---------------------------------|
|-----------|---1-1/3-|---------------------------------|
|-1-1/3-3/4-|-4-------|---------------------------------|
|-----------|---------|---------------------------------|

|-13-16v-13---------------------|-13------13------13--------13----------|
|----------16b(18)r(16)---14-16-|-16b(18)-16b(18)-16b(18)------16-14----|
|-------------------------------|------------------------------------15-|
|-------------------------------|---------------------------------------|
|------------------------------|---------------------------------------|
|-------------------------------|---------------------------------------|

|------------------------------|----------------------------------------|
|14-16-14----------------------|14v--14----------------------------14-16|
|--------15-13---------------13|-------13-------------------------------|
|-------------16b(18)r(16)-----|---------15-16-16b(18)r(16)b(18)--------|
|------------------------------|----------------------------------------|
|------------------------------|----------------------------------------|

|-------------------------|
|-16b(18)r14-16b(18)r(16)-|
|-------------------------|
|-------------------------|
|-------------------------|
|-------------------------|


Riff 6:

|-6p4-6p4-6p4-6p4-6p4-6p4-6p4-6p4-|
|---------------------------------|
|---------------------------------|
|---------------------------------|
|---------------------------------|
|---------------------------------|


Riff 7:
|--------|
|--------|
|--------|
|-3------|
|-3------|
|-1------|
|--------|


The Master Plan:

0:00 - Play Riff 1 2x
0:19 - Play Riff 2 2x
0:39 - Play Riff 3 2x
0:58 - Play Riff 4 2x
1:17 - Play Riff 2 2x
1:36 - Play Riff 3 2x
1:55 - Play Riff 4 2x
2:14 - Play Riff 5
2:35 - Play Riff 6 until 2:57
2:57 - Play Riff 7 once

Other versions of The Kids Aren't Alright

The kids aren't alrightChords

Almost there ...

Sign in to get your own page with links to favourite songs and more. You are just one click away...

Login with Facebook Login with Google