Log in

One click and you are in

Login with Facebook Login with Google

Why sign up and log in

Guitar Tabs Explorer
The Offspring tabs for Tehran

Guitar tabs

Album: The Offspring
As tabbed by Joe Muggah


Intro
e---7--\---0----7---\--0-----12----------------------------
B---8--\---0----8---\--0----------12-----------------------
G----------------------------------------------------------
D----------------------------------------------------------
A----------------------------------------------------------
E----------------------------------------------------------
Riff 1A (Guitar 1)
e----------------------------------------------------------
B-----------10--9------------------------------------------
G--9--9--9---------10---9--9--9--7--9----------------------
D----------------------------------------------------------
A----------------------------------------------------------
E----------------------------------------------------------


Riff 1B (Guitar 2)
e----------------------------------------------------------
B---------------------------------------------0----1----3--
G--9--9--9-----9--9--9--------------0----2-----------------
D--9--9--9-----9--9--9----2----3---------------------------
A--7--7--7-----7--7--7-------------------------------------
E----------------------------------------------------------

(continued)
e--7--7-7---7--7-7---7--7-7---7--7-7-----------------------
B--5--5-5---5--5-5---5--5-5---5--5-5-----------------------
G----------------------------------------------------------
D----------------------------------------------------------
A----------------------------------------------------------
E----------------------------------------------------------

Riff 2
e----------------------------------------------------------
B----------------------------------------------------------
G-9m-9m-9m-10m-10m-10m-9m--9--9m-9m-9m-10m-10m-10m-9m--12--
D-9m-9m-9m-10m-10m-10m-9m--9--9m-9m-9m-10m-10m-10m-9m--12--
A-7m-7m-7m--8m--8m--8m-7m--7--7m-7m-7m--8m--8m--8m-7m--10--
E----------------------------------------------------------

(continued)
e----------------------------------------------------------
B----------------------------------------------------------
G-9m-9m-9m-10m-10m-10m-9m--14--9m-9m-9m-10m-10m-10m-9m--16-
D-9m-9m-9m-10m-10m-10m-9m--14--9m-9m-9m-10m-10m-10m-9m--16-
A-7m-7m-7m--8m--8m--8m-7m--12--7m-7m-7m--8m--8m--8m-7m--14-
E----------------------------------------------------------


Verse
e----------------------------------------------------------
B----------------------------------------------------------
G--13-13--14--16-16--14--13-13--10--9--10--9---------------
D---x--x---x---x--x---x---x--x---x--x---x--x---------------
A--11-11--12--14-14--12--11-11---8--7---8--7---------------
E----------------------------------------------------------

Fill
e----------------------------------------------------------
B----------------------------------------------------------
G------------------10--------------------------------------
D--7-----7----7----10--------------------------------------
A--7-----7----7-----8--------------------------------------
E--5-----5----5--------------------------------------------


Chorus (each hit 2 times)
e---------------2-2-3-2-2-3--------------------------------
B---------------3-3-3-3-3-3--------------------------------
G---------------2-2-2-2-2-2---5-5-5-5--5-5--7-7------------
D--5-5-5-5-5-5--0-0-0-0-0-0---5-5-5-5--5-5--7-7------------
A--5-5-5-5-5-5----------------3-3-3-3--3-3--5-5------------
E--3-3-3-3-3-3---------------------------------------------


Riff 3                                end on
e--------------------------------------|-------------------
B--------------------------------------|-------------------
G--5-5-5-5--7-7-7-7--9-9-9-9--9-7-9-9--|--5-------7--------
D--5-5-5-5--7-7-7-7--9-9-9-9--9-7-9-9--|--5-(x8)--7-(x8)---
A--3-3-3-3--5-5-5-5--7-7-7-7--7-5-7-7--|--3-------5--------
E--------------------------------------|-------------------


Intro

Riff 1A

Riff 1A, 1B

Riff 2

Verse

Verse (palm muted)
Fill

Verse (palm muted)

Chorus

Verse

Verse (palm muted)
Fill

Verse (palm muted)

Chorus

Riff 2

Verse

Verse (palm-muted)
Fill

Verse (palm muted)

Chorus

Riff 3

Verse

Almost there ...

Sign in to get your own page with links to favourite songs and more. You are just one click away...

Login with Facebook Login with Google