Log in

One click and you are in

Login with Facebook Login with Google

Why sign up and log in

Guitar Tabs Explorer
The Offspring tabs for Something to believe in

Guitar tabs

Album: Smash
As tabbed by Joe Muggah

// = pick slide
Intro
e----|---------------------------------------------------
B----|---------------------------------------------------
G----|--10-----------------5--8-8-8-8-----10-10-10-10-10-
D----|--10--3--5--6-6-6-6--5--8-8-8-8--8--10-10-10-10-10-
A-//-|---8--3--5--6-6-6-6--3--6-6-6-6--8---8--8--8--8--8-
E-//-|------1--3--4-4-4-4--------------6-----------------


Verse (palm muted)
e--------------------------------------------------------
B--------------------------------------------------------
G-----------8-8--3-3-3-3---------------------------------
D--6-6-6-6--8-8--3-3-3-3--3-3----------------------------
A--6-6-6-6--6-6--1-1-1-1--3-3----------------------------
E--4-4-4-4----------------1-1----------------------------
("I believe that reality's gone...")


Pre-Chorus
e--------------------------------------------------------
B--------------------------------------------------------
G-------8-8---3-3-------------8-8---3-3------------------
D--6-6--8-8---3-3--3-3---6-6--8-8---3-3--3-3-------------
A--6-6--6-6---1-1--3-3---6-6--6-6---1-1--3-3-------------
E--4-4-------------1-1---4-4-------------1-1-------------
("If you take the sacred things...")


Chorus
e--------------------------------------------------------
B--------------------------------------------------------
G--10-10-10-10--8-8-----8-8-8-8--12-13-------------------
D--10-10-10-10--8-8--6--8-8-8-8--12-13-------------------
A---8--8--8--8--6-6--6--6-6-6-6--10-11-------------------
E--------------------4-----------------------------------
("Something to believe in...")

Fill
e--------------------------------------------------------
B--------------------------------------------------------
G----------------10\-------------------------------------
D--3-------------10\-------------------------------------
A--3-(let ring)---8\-------------------------------------
E--1-----------------------------------------------------
("Where they lead...")

Bridge (palm muted)
e--------------------------------------------------------
B--------------------------------------------------------
G-----------------------------------5--8-8-8-8-8-8-8-----
D--3-3-3-3-3-3-3--5--6-6-6-6-6-6-6--5--8-8-8-8-8-8-8-----
A--3-3-3-3-3-3-3--5--6-6-6-6-6-6-6--3--6-6-6-6-6-6-6-----
E--1-1-1-1-1-1-1--3--4-4-4-4-4-4-4-----------------------

(continued)
e--------------------------------------------------------
B--------------------------------------------------------
G-----10-10-10-10-10-10-10-------------------------------
D--8--10-10-10-10-10-10-10-------------------------------
A--8---8--8--8--8--8--8--8-------------------------------
E--6-----------------------------------------------------


Intro

Verse

Pre-Chorus

Chorus

Intro

Verse

Pre-Chorus

Chorus

Intro
Fill

Bridge

Intro

Chorus

Pre-Chorus

Almost there ...

Sign in to get your own page with links to favourite songs and more. You are just one click away...

Login with Facebook Login with Google