Log in

One click and you are in

Login with Facebook Login with Google

Why sign up and log in

Guitar Tabs Explorer
The Offspring bass tabs for Smash it up

Bass tabs with lyrics

Offspring - Smash it Up
from Batman forever soundtrack


|-----------|-------------------||--------------------|----------------|
|-----------|-------------------||o-------------------|----------------|
|-----------|---------3--3------||o-------------3--4--|-5--5-----------|
|-----------|----------------3--||---3----3--3--------|-------5--5--5--|

        play 3x
|-------------|---------------------||-------------------|--------------
|-------------|--------------------o||-------------------|--------------
|----7-----7--|-----7-----3--3-----o||-------------3--4--|--5---5-------
|-0-----0-----|--0-----0--------3---||--3----3--3--------|---------5--5-
-----|---------|--------|---------||-----------------------|------------
-----|---------|--------|---------||o----------------------|------------
-----|---------|--------|---------||o----------------------|------------
--5--|--0------|---0----|---------||----3----1----1--1/5---|--5--5---1--


---------|---------------------|--------------------------||
---------|---------------------|-------------------------o||
---------|---------------------|-------------------------o||
-1--1/5--|--5--5----1--1--1/3--|-3--3--3--3--3--3--3--3---||


Verses

|-------------------------|-------------------------|------------------|
|-------------------------|-------------------------|------------------|
|-------------------------|-3--3--3--3--3--3--3--3--|-----3--3--3--3---|
|-3--3--3--3--3--3--3--3--|-------------------------|------------------|

|-------------------------|-------------------------|------------------|
|-------------------------|-------------------------|------------------|
|-3--3--3--3--3--3--3--3--|-------------------------|------------------|
|-------------------------|-3--3--3--3--3--3--3--3--|--3--3--3--3------|


|-------------------------|-------------------------|------------------|
|-------------------------|-------------------------|------------------|
|-------------------------|-3--3--3--3--3--3--3--3--|--3--3--3--3------|
|-3--3--3--3--3--3--3--3--|-------------------------|------------------|


|-------------------------|-------------------------|------------------|
|-------------------------|-------------------------|------------------|
|-3--3--3--3--3--3--3--3--|-------------------------|------------------|
|-------------------------|-3--3--3--3--3--3--3--3--|----3--3--3--3----|


|---------------------|--------------------|---------------------------|
|---------------------|--------------------|---------------------------|
|---------------------|--------------------|---------------------------|
|--3----1----1---1/5--|---5---1---1--1/5---|--5----1---1--1-1----------|


|-------------------------|-------------------|------------------------|
|-------------------------|-------------------|------------------------|
|-------------------------|-------------------|------------------------|
|-3--3--3--3--3--3--3--3--|--3----1---1--1/5--|--5--5----1----1--1/5---|


|----------------------|--------------------------||
|----------------------|-------------------------o||
|----------------------|-------------------------o||
|-5------1----1--1--1--|--3--3--3--3--3--3--3--3--||


|--------------|----------------|------------|-------------------------|
|--------------|----------------|------------|-------------------------|
|-3--3--3--3---|--2--2--2--/5---|----5-------|-------------------------|
|--------------|----------------|------------|-----------------0-------|


Interlude
Smash it up    1/4    4x               4x
||--------------|---------------------||-------------------|------------||
||o-------------|--------------------o||o------------------|-----------o||
||o-------------|---------5--5-------o||o------------------|----7--7--7o||
||------0-------|--3b------------0----||----2---2---2---5--|-5----------||


Bridge
   And you keep...          3x
||-------------------------|-----------------------||-------------------
||o------------------------|----------------------o||-------------------
||o------------------------|----------------------o||-------------------
||-----7---7--7---7--7--7--|--7--7--5----5--5--5---||--7--7--7--7--7----


---------|-----------------|
---------|-----------------|
---------|-----------------|
--7--7---|-----7-----------|


up...

|---------------|-----------------|--------------|-------------|
|---------------|-----------------|--------------|-------------|
|--3--3--3--3---|---2--2--2--/5---|--5--5--5--5--|-------------|
|---------------|-----------------|--------------|-3--3--3--3--|


|--------------|--------------|-------------------------|---------------
|--------------|--------------|-------------------------|---------------
|--3--3--3--3--|--2--2--2--5--|-5--5--5--5--5--5--5--5--|-5--5--5--5--5-
|--------------|--------------|-------------------------|---------------


-----------|---------------------|----------------------|---------------
-----------|---------------------|----------------------|-----5---------
--5--5--5--|---------------------|--3--3--3----3--3--3--|---------------
-----------|-1--1--1----1--1--1--|----------------------|--3-----3---3--


---------|-------------------------|----------------------|-------------
---------|-------------------------|----------------------|-------------
---------|-------------------------|----------------------|--3--3--3--3-
--3--3---|-3--3--3--3--3--3--3--3--|--1--1--1----1--1--1--|-------------


--------------|----------|-------------|------------|
--------------|----------|-------------|------------|
--3--3--3--3--|----------|-------3-----|------------|
--------------|--3-------|--1----------|---3--------|


h = hammeron          Judy Letostak
p = pulloff           Internet letostak@ix.netcom.com
/\ = slide           Fidonet 1:202/762
x = ghost note         MetalNet 182:100/2
t = tap (right hand)      The Music Shop BBS (619)423-4970 24hrs
~ = vibrato           * = picked harmonic
bf = bend full         tr = trill
rb = release bend        p.s. = pick scrape
dive = dive with bar      b = bend / step written over note

The Music Shop BBS (619)423-4970 24hrs
Guitar Tab, Bass Tab, Lyrics, Sound Files, Pictures, BRE...LORD...FidoNet...
MetalNet...In a band? Want some exposure? I have a file area for bands
will take anything that can be put on a computer...Lyrics, pictures, sound
files, gig ads...email me or call my bbs. It's free, and access is free.
Also have a menu for band to put up Biographies, reviews of shows, demos,
gig advertisements, and you can sell your demo/CD here as well...And it's

Almost there ...

Sign in to get your own page with links to favourite songs and more. You are just one click away...

Login with Facebook Login with Google