Log in

One click and you are in

Login with Facebook Login with Google

Why sign up and log in

Guitar Tabs Explorer
The Offspring bass tabs for Self esteem

Bass tabs with lyrics

Self Esteem
By the OffSpring
From "Smash"
tabed by Ilan Galiani
LHDALIA@weizmann.weizmann.ac.il

Play it with a pick and be carefull for the Drums-Bass courdination

la la la la la la la la la Intro
----------------------||-----------------------------------||-------------------
----------------------||*---------------------------------*||-------------------
----------------------||*---------8--8--8-----------------*||-------------------
----------------------||----5--5-----------8--8--3--3--3---||-------------------


Verse: Bass only at first then the guitar joins the party
-||---------------------------------------------------||------------------------
-||*-------------------------------------------------*||------------------------
-||*--------------------------3--3--3--3-------------*||------------------------
-||---5--5--5--5--1--1---1--1h------------3--3--3--3h-||------------------------


the "oh yeah" part is playe the as the intro
-------------------||--------------------------------------||-------------------
-------------------||*------------------------------------*||-------------------
-------------------||*---------8--8--8--------------------*||-------------------
-------------------||---5---5-----------8--8--8--3--3--3---||-------------------


The chorus is played with rythem as the intro
-||--------------------------------------------------------------------||-------
-||*------------------------------------------------------------------*||-------
-||*--5--5--1--1--1---------3--3--5--5--1--1--1--------3--3--3--3--3--*||-------
-||------------------1---1-----------------------1--1------------------||-------



==      Created with a shareware version of the BUCKET 'O TAB      ==
==              For more information:              ==
==             email: gse@ocsystems.com             ==
==   US Mail: The Bucket, 3176-B5 Summit Square Dr., Oakton, VA 22124   ==

Almost there ...

Sign in to get your own page with links to favourite songs and more. You are just one click away...

Login with Facebook Login with Google