Log in

One click and you are in

Login with Facebook Login with Google

Why sign up and log in

Guitar Tabs Explorer
The Offspring bass tabs for Pretty fly for a white guy

Pretty Fly For A White Guy bass tab by The Offspring

The Offspring bass tabs for Pretty fly for a white guy

Bass tabs

Pretty Fly For A White Guy
Offspring

Basstab by Jan Bjorklund, Finland;
jani_bjorklund@yahoo.se
You are welcome to request for basstabs or standard notation!
Bienvenidos a pedirme transcripciones para el bajo!

TablEdited by Jan Bjorklund for Eric

Tuning : E A D G 	Time Signature: 4/4

 (Fly for|a white|guy)  |    |    |    |    |
|--------------------------------|--------------------------------|
|--------------------------------|--------------------------------|
|--------------------------------|2-----------2-----------0-------|
|--------------------------------|----------------2---------------|

 |    |    |    |    |    |    |    |
|--------------------------------|--------------------------------|
|----------------2-------0-------|--------------------------------|
|2-----------2-------------------|2-----------2-----------0-------|
|--------------------------------|----------------2---------------|

 |    |    |    |    |    |    |    |
|--------------------------------|--------------------------------|
|----------------2---2---0-------|--------------------------------|
|2-----------2-------------------|2-----------2-----------0-------|
|--------------------------------|----------------2---------------|

 |    |    |    |    Uno, doz, tres, quatro |
|--------------------------------|--------------------------------|
|----------------2---2---0-------|--------------------------------|
|2-----------2-------------------|2-----------2-----------0-------|
|--------------------------------|----------------2---------------|

 cinco, cinco, seis   |    You know|it's kind of hard
|--------------------------------|--------------------------------|
|----------------2---2---0-------|--------------------------------|
|2-----------2-------------------|2-----------2-----------0-------|
|--------------------------------|----------------2---------------|

 Just to get along today |    |    |    |    |
|--------------------------------|--------------------------------|
|----------------2-------0-------|--------------------------------|
|2-----------2-------------------|2-----------2-----------0-------|
|--------------------------------|----------------2---------------|

 |    |    |    |    |    |    |    |
|--------------------------------|--------------------------------|
|----------------2-------0-------|--------------------------------|
|2-----------2-------------------|2-----------2-----------0-------|
|--------------------------------|----------------2---------------|

 |    |    |    |    |    |    |    |
|--------------------------------|--------------------------------|
|----------------2-------0-------|--------------------------------|
|2-----------2-------------------|2-----------2-----------0-------|
|--------------------------------|----------------2---------------|

 |    |    so   |    don't debate  |    |
|--------------------------------|--------------------------------|
|----------------2---2---0-------|----------------3h--4---3h--4---|
|2-----------2-------------------|2-----------2-------------------|
|--------------------------------|--------------------------------|

 |    |    |    |    You know|he really doesn't
|--------------------------------|--------------------------------|
|----------------3h--4---3h--4---|0-----------0-----------0-------|
|2-----------2-------------------|----------------0---------------|
|--------------------------------|--------------------------------|

 |    |    |    |    |    |    |    |
|--------------------------------|--------------------------------|
|1---2---1---2---0---------------|----------------3---4---3---4---|
|------------------------0-------|2-------0---2-------------------|
|--------------------------------|--------------------------------|

 |    |    |    |    |    |    |    |
|--------------------------------|--------------------------------|
|----------------3---4---3---4---|0-------0---0-----------0-------|
|2-------0---2-------------------|----------------0---------------|
|--------------------------------|--------------------------------|

 |    |    |    |    |    |    |    |
|--------------------------------|--------------------------------|
|0---2---2---0---2---3---2---0---|----------------3---4---3---4---|
|--------------------------------|2-------0---2-------------------|
|--------------------------------|--------------------------------|

 |    |    |    |    |    |    |    |
|--------------------------------|--------------------------------|
|----------------3---4---3---4---|0-----------0-----------0-------|
|2-------0---2-------------------|----------------0---------------|
|--------------------------------|--------------------------------|

 |    |    |    |    |    |    |    |
|--------------------------------|0-----------0-----------0-------|
|0---2---2---2---0---------------|----------------0---------------|
|------------------------0-------|--------------------------------|
|--------------------------------|--------------------------------|

 |    |    |    |    |    |    |    |
|--------------------------------|--------------------------------|
|--------------------------------|--------4---3---2---0---0---2---|
|0---0-------0-----------0-------|2-------------------------------|
|----------------0---------------|--------------------------------|

 |    |    |    |    |    |    |    |
|--------------------------------|--------------------------------|
|--------------------------------|--------------------------------|
|2-------------------------------|2-----------2-----------0-------|
|--------------------------------|----------------2---------------|

 |    |    |    |    |    |    |    |
|--------------------------------|--------------------------------|
|----------------2---2---0-------|--------------------------------|
|2-------0---2-------------------|2-----------2-----------0-------|
|--------------------------------|----------------2---------------|

 |    |    |    |    |    |    |    |
|--------------------------------|--------------------------------|
|----------------2---2---0-------|--------------------------------|
|2-----------2-------------------|2-----------2-----------0-------|
|--------------------------------|----------------2---------------|

 |    |    |    |    |    |    |    |
|--------------------------------|--------------------------------|
|----------------2---2---0-------|--------  and so on... -------|
|2-----------2-------------------|--------------------------------|
|--------------------------------|--------------------------------|


http://www.geocities.com/jani_bjorklund/janis.html 1058405404377

Almost there ...

Sign in to get your own page with links to favourite songs and more. You are just one click away...

Login with Facebook Login with Google