Log in

One click and you are in

Login with Facebook Login with Google

Why sign up and log in

Guitar Tabs Explorer
The Offspring tabs for Original prankster

Guitar tabs

Band: The Offspring
Album: Conspiracy of one
Guitarist: Dexter Holland/Noodles

* = stop
x = palm muted

***Intro
|--------------------------------------------------||
|--------------------------------------------------||
|--------------------------------------------------||
|--------------------------------------------------||
|--0-0-3-0-0-*-0-0-3-0-5-0-6-0-*-0-0-3-0-0-*-5-----||
|--------------------------------------------------||

|------------------------------||
|------------------------------||
|------------------------------||
|---------------------5--7--5--||
|--0-0-3-0-5-0-0-5-5--3--5--3--||
|------------------------------||

***Verse
|-----------------------------||
|-----------------------------||
|-----------------------------||
|-----------------------------||
|--0-0-3-0-5-0-0-5-5-3-5-3----||
|-----------------------------||
   x x x x x x x x x x x x

***Interlude I
|------------------------------------||
|------------------------------------||
|---------------------9-9-9-9-9-9-9--||
|--5--5-5-5-5-5-5-5---9-9-9-9-9-9-9--||
|--5--5-5-5-5-5-5-5---7-7-7-7-7-7-7--||
|--3--3-3-3-3-3-3-3------------------||
      x x x x x x x   x x x x x x x

***Repeat Verse

***Pre-chorus
|-----------------------------||
|-----------------------------||
|-----5--7--9--7--7--5--7--5--||
|--2--5--7--9--7--7--5--7--5--||
|--0--3--5--7--5--5--3--5--3--||
|-----------------------------||

***Repeat Interlude I

***Chorus x2                       x1
|----------------------------------|--------------------------||
|----------------------------------|--------------------------||
|--------7-7-11-11--------7-5-9-9--|--9-7-9-7--7-7-7-7-7-7-7--||
|--7-7---7-7-11-11--7-7---7-5-9-9--|--9-7-9-7--7-7-7-7-7-7-7--||
|--7-7---5-5-9--9---7-7---5-5-7-7--|--7-5-7-5--5-5-5-5-5-5-5--||
|--5-5--------------5-5------------|--------------------------||
					       x x x x x x x

***Repeat Verse and Interlude I
***Repeat Pre-chorus and Chorus

***Repeat Intro and Verse

***Interlude II
|----------------------------||
|----------------------------||
|--5--5--5--5--5--5/11--11\--||
|--5--5--5--5--5--5/11--11\--||
|--3--3--3--3--3--3/9---9-\--||
|----------------------------||
      x  x  x  x
***Repeat Verse and Interlude I
***Repeat Chorus

Other versions of Original Prankster

OriginalpranksterChords

Almost there ...

Sign in to get your own page with links to favourite songs and more. You are just one click away...

Login with Facebook Login with Google