Log in

One click and you are in

Login with Facebook Login with Google

Why sign up and log in

Guitar Tabs Explorer
The Offspring bass tabs for Original prankster

Original Prankster bass tab by The Offspring

The Offspring bass tabs for Original prankster

Bass tabs

STANDARD TUNING


Intro
u can clearly here when the bass comes in here.the guitar plays one
bit at the begining then the bass comes in. you have to listen for
the timings.

g-----------------------------------------------]
d-----------------------------------------------]
a-----0-0-3-0-0---5-------0-0-3-0-0--5-5-3-5-3--]
e-0-3---------------0-3-4-----------------------]

Bridge
Follow the guitar here
Repeat x2

g-----------------------------------------------]
d-----------------------------------------------]
a-0-3-7-6-5-5-3-5-3--0-3-7-6-5-5-3-5------------]
e------------------------------------0-3-0------]


Verse        Last Time

g------------------][----------------------------]
d------------------][----------------------------]
a-0-3----5-5-3-5-3-][----------------------------]
e-----0------------][3-3-3-3-3-3-3-3-0-0-0-0-0-0-]


Bridge To chorus
Exactly the same rhythm as the guitar

              Last Time

g--------------------------][-------------------]
d--------------------------][-------------------]
a-0-3-7-6-5-5-3-5-3--------][-------------------]
e--------------------0-3-0-][3-3-3-3-0-0-0-0-0--]


Chorus x 3      Then...

g-------------------][---------------------------]
d-------------5-5-5-][-5--5--5--5-5-5-5-5-6-7---]
a---------5-5-------][---5-5---5-----------------]
e----5-5------------][---------------------------]

And you just go straight back into the chorus.
Oh yeah, and before you ask this is 100% correct.
See you later with more CORRECT tabs =)

Almost there ...

Sign in to get your own page with links to favourite songs and more. You are just one click away...

Login with Facebook Login with Google