Log in

One click and you are in

Login with Facebook Login with Google

Why sign up and log in

Guitar Tabs Explorer
The Offspring tabs for No brakes

Guitar tabs

Tab By: Adam Atkinson (jesus_smokes_dope@hotmail.com)
Tittle: No Brakes
Album: Americana

pretty simple

b - bend

verse - palm muting is also used

|--------------------------------------|
|--------------------------------------|
|-9-9---9---------------12-12-12-11-12-|
|-9-9---9-5-5---5-7-7---12-12-12-11-12-|
|-7-7---7-5-5---5-7-7---10-10-10--9-10-|
|---------3-3---3-5-5------------------|


chorus

|-------------------------------------------------------|
|-------------------------------------------------------|
|-----------------7-7-7-7-7-7-7-7-5-5-5-5-5-5-5-5-4-5-7-|
|-5-5-5-5-5-5-5-5-7-7-7-7-7-7-7-7-5-5-5-5-5-5-5-5-4-5-7-|
|-5-5-5-5-5-5-5-5-5-5-5-5-5-5-5-5-3-3-3-3-3-3-3-3-2-3-5-|
|-3-3-3-3-3-3-3-3---------------------------------------|

|------------------------------------------------------------------|
|------------------------------------------------------------------|
|-9-7-9-12-12-11--9-7-9-14-14b-12--9-7-9-12-12-11--9-7-9-14-14b-12-|
|-9-7-9-12-12-11--9-7-9-14-14b-12--9-7-9-12-12-11--9-7-9-14-14b-12-|
|-7-5-7-10-10--9--7-5-7-12-12b-10--7-5-7-10-10--9--7-5-7-12-12b-10-|
|------------------------------------------------------------------|

Almost there ...

Sign in to get your own page with links to favourite songs and more. You are just one click away...

Login with Facebook Login with Google