Log in

One click and you are in

Login with Facebook Login with Google

Why sign up and log in

Guitar Tabs Explorer
The Offspring chords for Million miles away

Guitar chords

Album: Conspiracy of One
As tabbed by Joe Muggah


Intro:

Riff 1A (Guitar 1, palm muted)       Fill 1
e-----------------------------------|------------------
B-----------------------------------|------------------
G-----------------2-----------------|-------9----------
D-----4-----2-----------2-----2h4---|-7-7-7-9----------
A-----------------------------------|-7-7-7-7----------
E-2-2---2-2---2-2---2-2---2-2-------|-5-5-5------------
Riff 1B (Guitar 2)
e------------------------------------------------------
B------------------------------------------------------
G-------------------------------7-7-7-7-7-9-9-9-9-9----
D-4-4-4-4-4-7-7-7-7-7-9-9-9-9-9-7-7-7-7-7-9-9-9-9-9----
A-4-4-4-4-4-7-7-7-7-7-9-9-9-9-9-5-5-5-5-5-7-7-7-7-7----
E-2-2-2-2-2-5-5-5-5-5-7-7-7-7-7------------------------


Chorus:
   _____Guitar 2*______ ______Both Guitars_________
e-|-------------------|---------------------------|----
B------------------------------------------------------
G-11-11-11-11-11-11-11---------------9-9-9-9-9-9-9-----
D-11-11-11-11-11-11-11-7-7-7-7-7-7-7-9-9-9-9-9-9-9-----
A--9--9--9--9--9--9--9-7-7-7-7-7-7-7-7-7-7-7-7-7-7-----
E----------------------5-5-5-5-5-5-5-------------------
*(Guitar 1 plays Riff 1A during this part)


Verse (both Guitars palm muted)
e------------------------------------------------------
B------------------------------------------------------
G-------------------------------------9-9-9-9-9-9------
D-4-4-4-4-4-4-4-4-4-4-4-7-7-7-7-7-7-7-9-9-9-9-9-9------
A-4-4-4-4-4-4-4-4-4-4-4-7-7-7-7-7-7-7-7-7-7-7-7-7------
E-2-2-2-2-2-2-2-2-2-2-2-5-5-5-5-5-5-5------------------


Pre-Chorus (both guitars)
e------------------------------------------------------
B------------------------------------------------------
G-4-6-7-6-9-9-9-9-9-9-9-9-9-9--------------------------
D-x-x-x-x-x-x-x-x-x-x-x-x-x-x--------------------------
A-2-4-5-4-7-7-7-7-7-7-7-7-7-7--------------------------
E------------------------------------------------------


Solo A chord diagramA augmentedA (played three times)
e-9\7-5-5-2-2-2--9\7-5/7-7-7-7-------------------------
B-9\7-5-5-2-2-2--9\7-5/7-7-7-7-------------------------
G------------------------------------------------------
D------------------------------------------------------
A------------------------------------------------------
E------------------------------------------------------


Solo A chord diagramBB (immediately following solo A chord diagramA augmentedA)
e------------------------------------------------------
B-10\7-7-7-7-5h7-7/10-10-10-10--(x3)-10-12-9-----------
G--------------------------------------------9---------
D------------------------------------------------------
A------------------------------------------------------
E------------------------------------------------------

The intro is basically riff 1A, 1B and the chorus riff
played differently. This is a really cool song, another
good one off this awesome album.

Almost there ...

Sign in to get your own page with links to favourite songs and more. You are just one click away...

Login with Facebook Login with Google