Log in

One click and you are in

Login with Facebook Login with Google

Why sign up and log in

Guitar Tabs Explorer
The Offspring bass tabs for Me and my old lady

Me And My Old Lady bass tab by The Offspring

The Offspring bass tabs for Me and my old lady

Bass tabs

Bass tab for Me & My Old Lady by The Offspring


Just done the intro: work the rest out yerselves
							   x2
G|-------------------------------------------------------------|
D|-------------------------------------------------------------|
A|------------------------10^(11)^10----------------------11\0-|
E|-0/12-12-10-10-12-12-12------------12-12-10-10-12-12-12------|

G|-------------------------------------------------------------|
D|-------------------------------------------------------------|
A|------------------------10^(11)^10---------------------------|
E|-0/12-12-10-10-12-12-12------------12-12-10-10-12-12-12--r---|

G|-------------------------------------------------------------|
D|-------------------------------------------------------------|
A|------------------------10^(11)^10---------------------------|
E|-0/12-12-10-10-12-12-12------------12-12-10-10-12-12-12-12\0-|

The verse is pretty much the same, but this might not be right anyway.


Notation:	/	Slide (pick second note)
		\	Slide (don't pick second note)
		^	Bend string (number in brackets is produced tone)

Almost there ...

Sign in to get your own page with links to favourite songs and more. You are just one click away...

Login with Facebook Login with Google