Log in

One click and you are in

Login with Facebook Login with Google

Why sign up and log in

Guitar Tabs Explorer
The Offspring tabs for Living in chaos

Guitar tabs

Album: Conspiracy Of One
As tabbed by Joe Muggah

Tune down 1/2 step
Chorus A chord diagramA augmentedA (Guitar 1)
eb------------------------------------------------------
Bb------------------------------------------------------
Gb--------2-2-------------------------------2-2---------
Db-------------------------4-4-------------------4-2h4--
Ab------------------------------------------------------
Eb--0mh2-------0m-0m-0mh2-------0m-0m-0mh2--------------

(continued)       Fill (Guitar 2)
eb----------------|-------------------------------------
Bb----------------|-------------------------------------
Gb----------------|-------------------------------------
Db--4-4-5-4-------|-------------------------------------
Ab----------------|-------------------------------------
Eb----------------|--0-/14-\-0--------------------------


Chorus A chord diagramBB (Guitar 2)
eb------------------------------------------------------
Bb------------------------------------------------------
Gb------11----------11----------11--11-9/11-11-11-12-11-
Db------11----------11----------11--11-9/11-11-11-12-11-
Ab-------9-----------9-----------9---9-7/-9--9--9-10--9-
Eb--0h2-----0-0-0h2-----0-0-0h2-------------------------


Riff 1
eb------------------------------------------------------
Bb------------------------------------------------------
Gb--7-7-7-7--7-7-7-7-7--9-9-9-9--9-9-9-9-9--11----------
Db--7-7-7-7--7-7-7-7-7--9-9-9-9--9-9-9-9-9--11----------
Ab--5-5-5-5--5-5-5-5-5--7-7-7-7--7-7-7-7-7---9----------
Eb------------------------------------------------------

Verse A chord diagramA augmentedA (Guitar 1)
eb--9--10--9--------------------9--10--9----------------
Bb------------10--9-----------------------10--9---------
Gb-------------------10--11----------------------10--11-
Db------------------------------------------------------
Ab------------------------------------------------------
Eb------------------------------------------------------
("Somewhere the time...")


Verse A chord diagramBB (Guitar 2)
eb------------------------------------------------------
Bb------------------------------------------------------
Gb--11------6-6/-11-11----14-14-14-14--13-13--11-11-----
Db---x------x-x---x--x-----x--x--x--x---x--x---x--x-----
Ab---9------4-4/--9--9----12-12-12-12--11-11---9--9-----
Eb------------------------------------------------------


Riff 2 (clean)
eb------------------------------------------------------
Bb------------------------------------------------------
Gb--11-11-9/11--11-11-12\11-11--------------------------
Db--11-11-9/11--11-11-12\11-11--------------------------
Ab---9--9-7/-9---9--9-10\-9--9--------------------------
Eb------------------------------------------------------


Bridge 1
eb------------------------------------------------------
Bb------------------------------------------------------
Gb--------------7---------------------------------------
Db--9--9-9-9-9--7----7--7-7-7-7--5---5-5-5-7------------
Ab--9--9-9-9-9--5----7--7-7-7-7--5---5-5-5-7------------
Eb--7--7-7-7-7--5----5--5-5-5-5--3---3-3-3-5------------
("Falling...")


Bridge 2
eb------------------------------------------------------
Bb------------------------------------------------------
Gb------11----------11----------11----------------------
Db------11----------11----------11---5--7---------------
Ab-------9-----------9-----------9---5--7---------------
Eb--0h2-----0-0-0h2-----0-0-0h2------3--5---------------


Riff 3
eb------------------------------------------------------
Bb------------------------------------------------------
Gb---------2-2------------------------------------------
Db------------------------------------------------------
Ab------------------------------------------------------
Eb---0mh2-----------------------------------------------


Chorus A chord diagramA augmentedA
Fill

Chorus A, A chord diagramBB

Riff 1

Verse A, A chord diagramBB
Fill

Chorus A chord diagramBB

Chorus A, A chord diagramBB

Riff 2

Verse A, A chord diagramBB
Fill

Chorus A chord diagramBB

Chorus A, A chord diagramBB

Bridge 1

Bridge 2

Chorus A chord diagramA augmentedA

Verse A, A chord diagramBB (cut mid-verse to Riff 3 then Riff 2)

Bridge 1

Bridge 2

Chorus A chord diagramBB

Other versions of Living In Chaos

Living in ChaosChords

Almost there ...

Sign in to get your own page with links to favourite songs and more. You are just one click away...

Login with Facebook Login with Google