Log in

One click and you are in

Login with Facebook Login with Google

Why sign up and log in

Guitar Tabs Explorer
The Offspring chords for Living in chaos

Guitar chords

Group: Offspring
Album: Conspiracy Of One
Released: 2000 columbia records
Track: 7
Title: living in chaos

: - let ring
x - scratch
pm - palm mute
/ \ - slide
h - hammer on
p - pull off

intro / riff
pm_____|   |_______|   |_______|
|------------------------------------------------------|
|------------------------------------------------------|
|-------1-1---------------------1-1--------------------|
|-------------------3-3--------------3-1-1-3-3-3-3h4p3-|
|------------------------------------------------------|
|-0-0h1-----0-0-0h1-----0-0-0h1------------------------|

guitar 2 / chorus

|------------------------------------------------------------|
|------------------------------------------------------------|
|-------10-x-x-------10-x-x-------10-x-x-8/10-10-10-10-11-10-|
|-3-x-x-10-x-x-3-x-x-10-x-x-3-x-x-10-x-x-8/10-10-10-10-11-10-|
|-3-x-x--8-x-x-3-x-x--8-x-x-3-x-x--8-x-x-6/-8--8--8--8--9--8-|
|-1-x-x--------1-x-x--------1-x-x----------------------------|

pre verse

|-----------------------------------------------|
|-----------------------------------------------|
|-6-6-6-6-x-6-6-6-6-x-8-8-8-8-x-8-8-8-8-x-10:---|
|-6-6-6-6-x-6-6-6-6-x-8-8-8-8-x-8-8-8-8-x-10:---|
|-4-4-4-4-x-4-4-4-4-x-6-6-6-6-x-6-6-6-6-x--8:---|
|-----------------------------------------------|

verse - guitar 1

|-8-9-8-------------|
|--------9-8---6:---|
|------------9------|
|-------------------|
|-------------------|
|-------------------|


verse - guitar 2

|---------------------------------------------|
|---------------------------------------------|
|-5-5--10-10:---13-13-13-12-12-12-10-10-10:---|
|-x-x---x--x:----x--x--x--x--x--x--x--x--x:---|
|-3-3---8--8:---11-11-11-10-10-10--8--8--8:---|
|---------------------------------------------|


bridge

|---------------------------------|
|---------------------------------|
|-3:--3-3-6:--6-6-----------------|
|-3:--3-3-6:--6-6-6:--6-6-4:--4-4-|
|-1:--1-1-4:--4-4-6:--6-6-4:--4-4-|
|-----------------4:--4-4-2:--2-2-|

once again a great song by offspring, enjoy these tabs
any hassells just e-mail me.

Other versions of Living In Chaos

Living in ChaosTabs

Almost there ...

Sign in to get your own page with links to favourite songs and more. You are just one click away...

Login with Facebook Login with Google