Log in

One click and you are in

Login with Facebook Login with Google

Why sign up and log in

Guitar Tabs Explorer
The Offspring bass tabs for Let the bad times roll

Let The Bad Times Roll bass tab by The Offspring

The Offspring bass tabs for Let the bad times roll

Bass tabs with lyrics

Tuning: Standard (E A D G)

🤘 Intro:

Oh, baby, let the bad times roll (Oh-oh-oh-oh)

G|-------------------------------------|
D|-------------------------------------|
A|-6--6-66-----------2--2-22--4-4--44--|
E|----------2--2-22--------------------|

G|-------------------------------------|
D|-------------------------------------|
A|-6--6-66-----------2--2-22--4~-------|
E|----------2--2-22--------------------|
🤘 Verse 1:

We're gonna hang 'em high

We’re gonna shoot straight up in the air

This eye is for an eye

Don’t need to ask and don’t need to care, yeah


🤘 Pre-Chorus:

Well, don't be thinkin' we're crazy, crazy....

G|--------------------------------------|
D|--------------------------------------|
A|-66666666-99999999---------------4446-|
E|-------------------77777777-7777------|. X2

And so I....

G|-------------------------------------|
D|-------------------------------------|
A|-4*~~----2*~~----4*~~-----2*~~-------|
E|-------------------------------------|


Chorus x4:

Oh, baby, let the bad times roll....

G|-------------------------------------|
D|-------------------------------------|
A|-6--6-66-----------2--2-22--4-4--44--|
E|----------2--2-22--------------------|

G|-------------------------------------|
D|-------------------------------------|
A|-6--6-66-----------2--2-22--4~-------|
E|----------2--2-22--------------------|


🤘 Verse 2:

Now it was all a lie....
(No Bass for 8 measures)


🤘 Pre-Chorus 2:

Well, don't be thinkin' we're crazy, crazy...

G|--------------------------------------|
D|--------------------------------------|
A|-66666666-99999999---------------4446-|
E|-------------------77777777-7777------|. X2

And so I....

G|-------------------------------------|
D|-------------------------------------|
A|-4*~~----2*~~----4*~~-----2*~~-------|
E|-------------------------------------|


Chorus x4:

Oh, baby, let the bad times roll

G|-------------------------------------|
D|-------------------------------------|
A|-6--6-66-----------2--2-22--4-4--44--|
E|----------2--2-22--------------------|

G|-------------------------------------|
D|-------------------------------------|
A|-6--6-66-----------2--2-22--4~-------|
E|----------2--2-22--------------------|


Post-🤘 Chorus:

Now I'm letting the bad times roll...

G|--------------------------------------|
D|--------------------------------------|
A|-66666666-99999999---------------4446-|
E|-------------------77777777-7777------|

Doing it all for you....

G|-------------------------------------|
D|-------------------------------------|
A|-4*~~----2*~~------------------------|
E|-------------------------------------|


Chorus x4:

Oh, baby, let the bad times roll....
G|-------------------------------------|
D|-------------------------------------|
A|-6--6-66-----------2--2-22--4-4--44--|
E|----------2--2-22--------------------|

G|-------------------------------------|
D|-------------------------------------|
A|-6--6-66-----------2--2-22--4~-------|
E|----------2--2-22--------------------|


*~ Let note Ring

Almost there ...

Sign in to get your own page with links to favourite songs and more. You are just one click away...

Login with Facebook Login with Google